ISO-10303-21;
HEADER;
FILE_DESCRIPTION(('Creo Elements/Direct Modeling STEP Export'),'2;1');
FILE_NAME(
'C:/Temp/JobServerData/JobServer Files/91b4423a-de86-4776-944e-99765a0ad
2ec/work/output/model.stp','2024-03-14T15:41:17',(''),(''),
'Creo Elements/Direct Modeling STEP processor for AP214 (Solid Model)',
'Creo Elements/Direct Modeling 20.1D  10-Oct-2020 (C) Parametric Technol
ogy GmbH','');
FILE_SCHEMA(('AUTOMOTIVE_DESIGN { 1 0 10303 214 1 1 1 1 }'));
ENDSEC;
DATA;
#10=CARTESIAN_POINT('',(0.,3.5,0.));
#20=DIRECTION('',(0.,1.,0.));
#30=DIRECTION('',(1.,0.,0.));
#40=AXIS2_PLACEMENT_3D('',#10,#20,#30);
#50=CYLINDRICAL_SURFACE('',#40,0.650000000000001);
#60=CARTESIAN_POINT('',(0.650000000000001,3.5,0.));
#70=DIRECTION('',(0.,1.,0.));
#80=VECTOR('',#70,1.);
#90=LINE('',#60,#80);
#100=CARTESIAN_POINT('',(0.650000000000001,-1.,0.));
#110=VERTEX_POINT('',#100);
#120=CARTESIAN_POINT('',(0.650000000000001,10.,0.));
#130=VERTEX_POINT('',#120);
#140=EDGE_CURVE('',#110,#130,#90,.T.);
#150=ORIENTED_EDGE('',*,*,#140,.F.);
#160=CARTESIAN_POINT('',(0.,10.,0.));
#170=DIRECTION('',(0.,1.,0.));
#180=DIRECTION('',(1.,0.,0.));
#190=AXIS2_PLACEMENT_3D('',#160,#170,#180);
#200=CIRCLE('',#190,0.65);
#210=CARTESIAN_POINT('',(-0.650000000000001,10.,-7.9602041944578E-17));
#220=VERTEX_POINT('',#210);
#230=EDGE_CURVE('',#220,#130,#200,.T.);
#240=ORIENTED_EDGE('',*,*,#230,.T.);
#250=CARTESIAN_POINT('',(-0.650000000000001,3.5,-7.9602041944578E-17));
#260=DIRECTION('',(0.,1.,0.));
#270=VECTOR('',#260,1.);
#280=LINE('',#250,#270);
#290=CARTESIAN_POINT('',(-0.650000000000001,-1.,-7.9602041944578E-17));
#300=VERTEX_POINT('',#290);
#310=EDGE_CURVE('',#300,#220,#280,.T.);
#320=ORIENTED_EDGE('',*,*,#310,.T.);
#330=CARTESIAN_POINT('',(0.,-1.,0.));
#340=DIRECTION('',(0.,1.,0.));
#350=DIRECTION('',(1.,0.,0.));
#360=AXIS2_PLACEMENT_3D('',#330,#340,#350);
#370=CIRCLE('',#360,0.650000000000001);
#380=EDGE_CURVE('',#300,#110,#370,.T.);
#390=ORIENTED_EDGE('',*,*,#380,.F.);
#400=EDGE_LOOP('',(#390,#320,#240,#150));
#410=FACE_OUTER_BOUND('',#400,.T.);
#420=ADVANCED_FACE('',(#410),#50,.F.);
#430=COLOUR_RGB('',0.823529481887817,0.823529481887817,0.784313797950745
);
#440=FILL_AREA_STYLE_COLOUR('',#430);
#450=FILL_AREA_STYLE('',(#440));
#460=SURFACE_STYLE_FILL_AREA(#450);
#470=SURFACE_SIDE_STYLE('',(#460));
#480=SURFACE_STYLE_USAGE(.BOTH.,#470);
#490=PRESENTATION_STYLE_ASSIGNMENT((#480));
#500=CARTESIAN_POINT('',(0.,-1.90499654695475,0.));
#510=DIRECTION('',(0.,-1.,0.));
#520=DIRECTION('',(-1.,0.,0.));
#530=AXIS2_PLACEMENT_3D('',#500,#510,#520);
#540=CONICAL_SURFACE('',#530,1.1725,0.523598775598299);
#550=CARTESIAN_POINT('',(-1.1725,-1.90499654695475,0.));
#560=DIRECTION('',(-0.5,-0.866025403784439,0.));
#570=VECTOR('',#560,2.34500000000001);
#580=LINE('',#550,#570);
#590=CARTESIAN_POINT('',(-1.1725,-1.90499654695475,0.));
#600=VERTEX_POINT('',#590);
#610=EDGE_CURVE('',#300,#600,#580,.T.);
#620=ORIENTED_EDGE('',*,*,#610,.T.);
#630=EDGE_CURVE('',#110,#300,#370,.T.);
#640=ORIENTED_EDGE('',*,*,#630,.T.);
#650=CARTESIAN_POINT('',(1.1725,-1.90499654695475,-1.43589837200028E-16)
);
#660=DIRECTION('',(0.5,-0.866025403784439,-6.12323399573677E-17));
#670=VECTOR('',#660,2.34500000000001);
#680=LINE('',#650,#670);
#690=CARTESIAN_POINT('',(1.1725,-1.90499654695475,-1.43589837200028E-16)
);
#700=VERTEX_POINT('',#690);
#710=EDGE_CURVE('',#110,#700,#680,.T.);
#720=ORIENTED_EDGE('',*,*,#710,.F.);
#730=CARTESIAN_POINT('',(0.,-1.90499654695475,0.));
#740=DIRECTION('',(0.,-1.,0.));
#750=DIRECTION('',(-1.,0.,0.));
#760=AXIS2_PLACEMENT_3D('',#730,#740,#750);
#770=CIRCLE('',#760,1.1725);
#780=EDGE_CURVE('',#600,#700,#770,.T.);
#790=ORIENTED_EDGE('',*,*,#780,.T.);
#800=EDGE_LOOP('',(#790,#720,#640,#620));
#810=FACE_OUTER_BOUND('',#800,.T.);
#820=ADVANCED_FACE('',(#810),#540,.F.);
#830=COLOUR_RGB('',0.823529481887817,0.823529481887817,0.784313797950745
);
#840=FILL_AREA_STYLE_COLOUR('',#830);
#850=FILL_AREA_STYLE('',(#840));
#860=SURFACE_STYLE_FILL_AREA(#850);
#870=SURFACE_SIDE_STYLE('',(#860));
#880=SURFACE_STYLE_USAGE(.BOTH.,#870);
#890=PRESENTATION_STYLE_ASSIGNMENT((#880));
#900=CARTESIAN_POINT('',(0.725,10.,0.));
#910=DIRECTION('',(-0.,-1.,-0.));
#920=DIRECTION('',(-1.,0.,0.));
#930=AXIS2_PLACEMENT_3D('',#900,#910,#920);
#940=PLANE('',#930);
#950=EDGE_CURVE('',#130,#220,#200,.T.);
#960=ORIENTED_EDGE('',*,*,#950,.F.);
#970=ORIENTED_EDGE('',*,*,#230,.F.);
#980=EDGE_LOOP('',(#970,#960));
#990=FACE_BOUND('',#980,.T.);
#1000=CARTESIAN_POINT('',(0.,10.,0.));
#1010=DIRECTION('',(0.,1.,0.));
#1020=DIRECTION('',(1.,0.,0.));
#1030=AXIS2_PLACEMENT_3D('',#1000,#1010,#1020);
#1040=CIRCLE('',#1030,0.8);
#1050=CARTESIAN_POINT('',(0.800000000000001,10.,-9.79717439317883E-17));
#1060=VERTEX_POINT('',#1050);
#1070=CARTESIAN_POINT('',(-0.800000000000001,10.,0.));
#1080=VERTEX_POINT('',#1070);
#1090=EDGE_CURVE('',#1060,#1080,#1040,.T.);
#1100=ORIENTED_EDGE('',*,*,#1090,.T.);
#1110=EDGE_CURVE('',#1080,#1060,#1040,.T.);
#1120=ORIENTED_EDGE('',*,*,#1110,.T.);
#1130=EDGE_LOOP('',(#1120,#1100));
#1140=FACE_OUTER_BOUND('',#1130,.T.);
#1150=ADVANCED_FACE('',(#990,#1140),#940,.F.);
#1160=COLOUR_RGB('',0.823529481887817,0.823529481887817,
0.784313797950745);
#1170=FILL_AREA_STYLE_COLOUR('',#1160);
#1180=FILL_AREA_STYLE('',(#1170));
#1190=SURFACE_STYLE_FILL_AREA(#1180);
#1200=SURFACE_SIDE_STYLE('',(#1190));
#1210=SURFACE_STYLE_USAGE(.BOTH.,#1200);
#1220=PRESENTATION_STYLE_ASSIGNMENT((#1210));
#1230=CARTESIAN_POINT('',(0.,3.5,0.));
#1240=DIRECTION('',(0.,-1.,0.));
#1250=DIRECTION('',(-1.,0.,0.));
#1260=AXIS2_PLACEMENT_3D('',#1230,#1240,#1250);
#1270=CYLINDRICAL_SURFACE('',#1260,0.800000000000001);
#1280=CARTESIAN_POINT('',(0.800000000000001,3.5,-9.79717439317883E-17));
#1290=DIRECTION('',(0.,-1.,0.));
#1300=VECTOR('',#1290,1.);
#1310=LINE('',#1280,#1300);
#1320=CARTESIAN_POINT('',(0.800000000000001,0.,-9.79717439317883E-17));
#1330=VERTEX_POINT('',#1320);
#1340=EDGE_CURVE('',#1060,#1330,#1310,.T.);
#1350=ORIENTED_EDGE('',*,*,#1340,.F.);
#1360=CARTESIAN_POINT('',(0.,-5.55111512312578E-17,0.));
#1370=DIRECTION('',(0.,-1.,0.));
#1380=DIRECTION('',(-1.,0.,0.));
#1390=AXIS2_PLACEMENT_3D('',#1360,#1370,#1380);
#1400=CIRCLE('',#1390,0.800000000000001);
#1410=CARTESIAN_POINT('',(-0.800000000000001,0.,0.));
#1420=VERTEX_POINT('',#1410);
#1430=EDGE_CURVE('',#1330,#1420,#1400,.T.);
#1440=ORIENTED_EDGE('',*,*,#1430,.F.);
#1450=CARTESIAN_POINT('',(-0.800000000000001,3.5,0.));
#1460=DIRECTION('',(0.,-1.,0.));
#1470=VECTOR('',#1460,1.);
#1480=LINE('',#1450,#1470);
#1490=EDGE_CURVE('',#1080,#1420,#1480,.T.);
#1500=ORIENTED_EDGE('',*,*,#1490,.T.);
#1510=ORIENTED_EDGE('',*,*,#1110,.F.);
#1520=EDGE_LOOP('',(#1510,#1500,#1440,#1350));
#1530=FACE_OUTER_BOUND('',#1520,.T.);
#1540=ADVANCED_FACE('',(#1530),#1270,.T.);
#1550=COLOUR_RGB('',0.823529481887817,0.823529481887817,
0.784313797950745);
#1560=FILL_AREA_STYLE_COLOUR('',#1550);
#1570=FILL_AREA_STYLE('',(#1560));
#1580=SURFACE_STYLE_FILL_AREA(#1570);
#1590=SURFACE_SIDE_STYLE('',(#1580));
#1600=SURFACE_STYLE_USAGE(.BOTH.,#1590);
#1610=PRESENTATION_STYLE_ASSIGNMENT((#1600));
#1620=CARTESIAN_POINT('',(0.,-6.,0.));
#1630=DIRECTION('',(0.,-1.,0.));
#1640=DIRECTION('',(-1.,0.,0.));
#1650=AXIS2_PLACEMENT_3D('',#1620,#1630,#1640);
#1660=CONICAL_SURFACE('',#1650,1.7,0.12811003339698);
#1670=CARTESIAN_POINT('',(1.7,-6.,-2.0818995585505E-16));
#1680=DIRECTION('',(0.127759893346595,-0.991805126853086,
-1.56460744446314E-17));
#1690=VECTOR('',#1680,13.3062102313137);
#1700=LINE('',#1670,#1690);
#1710=CARTESIAN_POINT('',(1.7,-6.,-2.0818995585505E-16));
#1720=VERTEX_POINT('',#1710);
#1730=EDGE_CURVE('',#700,#1720,#1700,.T.);
#1740=ORIENTED_EDGE('',*,*,#1730,.T.);
#1750=EDGE_CURVE('',#700,#600,#770,.T.);
#1760=ORIENTED_EDGE('',*,*,#1750,.F.);
#1770=CARTESIAN_POINT('',(-1.7,-6.,0.));
#1780=DIRECTION('',(-0.127759893346595,-0.991805126853086,0.));
#1790=VECTOR('',#1780,13.3062102313137);
#1800=LINE('',#1770,#1790);
#1810=CARTESIAN_POINT('',(-1.7,-6.,0.));
#1820=VERTEX_POINT('',#1810);
#1830=EDGE_CURVE('',#600,#1820,#1800,.T.);
#1840=ORIENTED_EDGE('',*,*,#1830,.F.);
#1850=CARTESIAN_POINT('',(0.,-6.,0.));
#1860=DIRECTION('',(0.,1.,0.));
#1870=DIRECTION('',(1.,0.,0.));
#1880=AXIS2_PLACEMENT_3D('',#1850,#1860,#1870);
#1890=CIRCLE('',#1880,1.7);
#1900=EDGE_CURVE('',#1820,#1720,#1890,.T.);
#1910=ORIENTED_EDGE('',*,*,#1900,.F.);
#1920=EDGE_LOOP('',(#1910,#1840,#1760,#1740));
#1930=FACE_OUTER_BOUND('',#1920,.T.);
#1940=ADVANCED_FACE('',(#1930),#1660,.F.);
#1950=COLOUR_RGB('',0.560784339904785,0.588235318660736,
0.600000023841858);
#1960=FILL_AREA_STYLE_COLOUR('',#1950);
#1970=FILL_AREA_STYLE('',(#1960));
#1980=SURFACE_STYLE_FILL_AREA(#1970);
#1990=SURFACE_SIDE_STYLE('',(#1980));
#2000=SURFACE_STYLE_USAGE(.BOTH.,#1990);
#2010=PRESENTATION_STYLE_ASSIGNMENT((#2000));
#2020=CARTESIAN_POINT('',(1.825,-6.,0.));
#2030=DIRECTION('',(-0.,1.,0.));
#2040=DIRECTION('',(1.,0.,0.));
#2050=AXIS2_PLACEMENT_3D('',#2020,#2030,#2040);
#2060=PLANE('',#2050);
#2070=CARTESIAN_POINT('',(0.,-6.,0.));
#2080=DIRECTION('',(0.,1.,0.));
#2090=DIRECTION('',(1.,0.,0.));
#2100=AXIS2_PLACEMENT_3D('',#2070,#2080,#2090);
#2110=CIRCLE('',#2100,1.95);
#2120=CARTESIAN_POINT('',(1.95,-6.,0.));
#2130=VERTEX_POINT('',#2120);
#2140=CARTESIAN_POINT('',(-1.95,-6.,-2.38806125833733E-16));
#2150=VERTEX_POINT('',#2140);
#2160=EDGE_CURVE('',#2130,#2150,#2110,.T.);
#2170=ORIENTED_EDGE('',*,*,#2160,.F.);
#2180=EDGE_CURVE('',#2150,#2130,#2110,.T.);
#2190=ORIENTED_EDGE('',*,*,#2180,.F.);
#2200=EDGE_LOOP('',(#2190,#2170));
#2210=FACE_OUTER_BOUND('',#2200,.T.);
#2220=EDGE_CURVE('',#1720,#1820,#1890,.T.);
#2230=ORIENTED_EDGE('',*,*,#2220,.T.);
#2240=ORIENTED_EDGE('',*,*,#1900,.T.);
#2250=EDGE_LOOP('',(#2240,#2230));
#2260=FACE_BOUND('',#2250,.T.);
#2270=ADVANCED_FACE('',(#2210,#2260),#2060,.F.);
#2280=COLOUR_RGB('',0.560784339904785,0.588235318660736,
0.600000023841858);
#2290=FILL_AREA_STYLE_COLOUR('',#2280);
#2300=FILL_AREA_STYLE('',(#2290));
#2310=SURFACE_STYLE_FILL_AREA(#2300);
#2320=SURFACE_SIDE_STYLE('',(#2310));
#2330=SURFACE_STYLE_USAGE(.BOTH.,#2320);
#2340=PRESENTATION_STYLE_ASSIGNMENT((#2330));
#2350=CARTESIAN_POINT('',(0.,-4.09,0.));
#2360=DIRECTION('',(0.,1.,0.));
#2370=DIRECTION('',(1.,0.,0.));
#2380=AXIS2_PLACEMENT_3D('',#2350,#2360,#2370);
#2390=CYLINDRICAL_SURFACE('',#2380,1.95);
#2400=CARTESIAN_POINT('',(1.95,-4.09,0.));
#2410=DIRECTION('',(0.,1.,0.));
#2420=VECTOR('',#2410,1.);
#2430=LINE('',#2400,#2420);
#2440=CARTESIAN_POINT('',(1.95,-2.18,0.));
#2450=VERTEX_POINT('',#2440);
#2460=EDGE_CURVE('',#2130,#2450,#2430,.T.);
#2470=ORIENTED_EDGE('',*,*,#2460,.T.);
#2480=ORIENTED_EDGE('',*,*,#2180,.T.);
#2490=CARTESIAN_POINT('',(-1.95,-4.09,-2.38806125833733E-16));
#2500=DIRECTION('',(0.,1.,0.));
#2510=VECTOR('',#2500,1.);
#2520=LINE('',#2490,#2510);
#2530=CARTESIAN_POINT('',(-1.95,-2.18,-2.38806125833733E-16));
#2540=VERTEX_POINT('',#2530);
#2550=EDGE_CURVE('',#2150,#2540,#2520,.T.);
#2560=ORIENTED_EDGE('',*,*,#2550,.F.);
#2570=CARTESIAN_POINT('',(0.,-2.18,0.));
#2580=DIRECTION('',(0.,1.,0.));
#2590=DIRECTION('',(1.,0.,0.));
#2600=AXIS2_PLACEMENT_3D('',#2570,#2580,#2590);
#2610=CIRCLE('',#2600,1.94999999999999);
#2620=EDGE_CURVE('',#2540,#2450,#2610,.T.);
#2630=ORIENTED_EDGE('',*,*,#2620,.F.);
#2640=EDGE_LOOP('',(#2630,#2560,#2480,#2470));
#2650=FACE_OUTER_BOUND('',#2640,.T.);
#2660=ADVANCED_FACE('',(#2650),#2390,.T.);
#2670=COLOUR_RGB('',0.560784339904785,0.588235318660736,
0.600000023841858);
#2680=FILL_AREA_STYLE_COLOUR('',#2670);
#2690=FILL_AREA_STYLE('',(#2680));
#2700=SURFACE_STYLE_FILL_AREA(#2690);
#2710=SURFACE_SIDE_STYLE('',(#2700));
#2720=SURFACE_STYLE_USAGE(.BOTH.,#2710);
#2730=PRESENTATION_STYLE_ASSIGNMENT((#2720));
#2740=CARTESIAN_POINT('',(0.,-2.18,0.));
#2750=DIRECTION('',(0.,-1.,0.));
#2760=DIRECTION('',(-1.,0.,0.));
#2770=AXIS2_PLACEMENT_3D('',#2740,#2750,#2760);
#2780=CONICAL_SURFACE('',#2770,1.94999999999999,0.48542275112927);
#2790=CARTESIAN_POINT('',(-1.94999999999999,-2.18,0.));
#2800=DIRECTION('',(-0.466582315111272,-0.884477779950071,0.));
#2810=VECTOR('',#2800,4.17932685583025);
#2820=LINE('',#2790,#2810);
#2830=EDGE_CURVE('',#1420,#2540,#2820,.T.);
#2840=ORIENTED_EDGE('',*,*,#2830,.F.);
#2850=EDGE_CURVE('',#2450,#2540,#2610,.T.);
#2860=ORIENTED_EDGE('',*,*,#2850,.T.);
#2870=CARTESIAN_POINT('',(1.94999999999999,-2.18,-2.38806125833733E-16))
;
#2880=DIRECTION('',(0.466582315111272,-0.884477779950071,
-5.71398538739781E-17));
#2890=VECTOR('',#2880,4.17932685583025);
#2900=LINE('',#2870,#2890);
#2910=EDGE_CURVE('',#1330,#2450,#2900,.T.);
#2920=ORIENTED_EDGE('',*,*,#2910,.T.);
#2930=EDGE_CURVE('',#1420,#1330,#1400,.T.);
#2940=ORIENTED_EDGE('',*,*,#2930,.T.);
#2950=EDGE_LOOP('',(#2940,#2920,#2860,#2840));
#2960=FACE_OUTER_BOUND('',#2950,.T.);
#2970=ADVANCED_FACE('',(#2960),#2780,.T.);
#2980=COLOUR_RGB('',0.560784339904785,0.588235318660736,
0.600000023841858);
#2990=FILL_AREA_STYLE_COLOUR('',#2980);
#3000=FILL_AREA_STYLE('',(#2990));
#3010=SURFACE_STYLE_FILL_AREA(#3000);
#3020=SURFACE_SIDE_STYLE('',(#3010));
#3030=SURFACE_STYLE_USAGE(.BOTH.,#3020);
#3040=PRESENTATION_STYLE_ASSIGNMENT((#3030));
#3050=CARTESIAN_POINT('',(0.,-4.09,0.));
#3060=DIRECTION('',(0.,1.,0.));
#3070=DIRECTION('',(1.,0.,0.));
#3080=AXIS2_PLACEMENT_3D('',#3050,#3060,#3070);
#3090=CYLINDRICAL_SURFACE('',#3080,1.95);
#3100=ORIENTED_EDGE('',*,*,#2850,.F.);
#3110=ORIENTED_EDGE('',*,*,#2550,.T.);
#3120=ORIENTED_EDGE('',*,*,#2160,.T.);
#3130=ORIENTED_EDGE('',*,*,#2460,.F.);
#3140=EDGE_LOOP('',(#3130,#3120,#3110,#3100));
#3150=FACE_OUTER_BOUND('',#3140,.T.);
#3160=ADVANCED_FACE('',(#3150),#3090,.T.);
#3170=COLOUR_RGB('',0.560784339904785,0.588235318660736,
0.600000023841858);
#3180=FILL_AREA_STYLE_COLOUR('',#3170);
#3190=FILL_AREA_STYLE('',(#3180));
#3200=SURFACE_STYLE_FILL_AREA(#3190);
#3210=SURFACE_SIDE_STYLE('',(#3200));
#3220=SURFACE_STYLE_USAGE(.BOTH.,#3210);
#3230=PRESENTATION_STYLE_ASSIGNMENT((#3220));
#3240=CARTESIAN_POINT('',(0.,3.5,0.));
#3250=DIRECTION('',(0.,1.,0.));
#3260=DIRECTION('',(1.,0.,0.));
#3270=AXIS2_PLACEMENT_3D('',#3240,#3250,#3260);
#3280=CYLINDRICAL_SURFACE('',#3270,0.650000000000001);
#3290=ORIENTED_EDGE('',*,*,#630,.F.);
#3300=ORIENTED_EDGE('',*,*,#310,.F.);
#3310=ORIENTED_EDGE('',*,*,#950,.T.);
#3320=ORIENTED_EDGE('',*,*,#140,.T.);
#3330=EDGE_LOOP('',(#3320,#3310,#3300,#3290));
#3340=FACE_OUTER_BOUND('',#3330,.T.);
#3350=ADVANCED_FACE('',(#3340),#3280,.F.);
#3360=COLOUR_RGB('',0.823529481887817,0.823529481887817,
0.784313797950745);
#3370=FILL_AREA_STYLE_COLOUR('',#3360);
#3380=FILL_AREA_STYLE('',(#3370));
#3390=SURFACE_STYLE_FILL_AREA(#3380);
#3400=SURFACE_SIDE_STYLE('',(#3390));
#3410=SURFACE_STYLE_USAGE(.BOTH.,#3400);
#3420=PRESENTATION_STYLE_ASSIGNMENT((#3410));
#3430=CARTESIAN_POINT('',(0.,-2.18,0.));
#3440=DIRECTION('',(0.,-1.,0.));
#3450=DIRECTION('',(-1.,0.,0.));
#3460=AXIS2_PLACEMENT_3D('',#3430,#3440,#3450);
#3470=CONICAL_SURFACE('',#3460,1.94999999999999,0.48542275112927);
#3480=ORIENTED_EDGE('',*,*,#2830,.T.);
#3490=ORIENTED_EDGE('',*,*,#1430,.T.);
#3500=ORIENTED_EDGE('',*,*,#2910,.F.);
#3510=ORIENTED_EDGE('',*,*,#2620,.T.);
#3520=EDGE_LOOP('',(#3510,#3500,#3490,#3480));
#3530=FACE_OUTER_BOUND('',#3520,.T.);
#3540=ADVANCED_FACE('',(#3530),#3470,.T.);
#3550=COLOUR_RGB('',0.560784339904785,0.588235318660736,
0.600000023841858);
#3560=FILL_AREA_STYLE_COLOUR('',#3550);
#3570=FILL_AREA_STYLE('',(#3560));
#3580=SURFACE_STYLE_FILL_AREA(#3570);
#3590=SURFACE_SIDE_STYLE('',(#3580));
#3600=SURFACE_STYLE_USAGE(.BOTH.,#3590);
#3610=PRESENTATION_STYLE_ASSIGNMENT((#3600));
#3620=CARTESIAN_POINT('',(0.,-6.,0.));
#3630=DIRECTION('',(0.,-1.,0.));
#3640=DIRECTION('',(-1.,0.,0.));
#3650=AXIS2_PLACEMENT_3D('',#3620,#3630,#3640);
#3660=CONICAL_SURFACE('',#3650,1.7,0.12811003339698);
#3670=ORIENTED_EDGE('',*,*,#1730,.F.);
#3680=ORIENTED_EDGE('',*,*,#2220,.F.);
#3690=ORIENTED_EDGE('',*,*,#1830,.T.);
#3700=ORIENTED_EDGE('',*,*,#780,.F.);
#3710=EDGE_LOOP('',(#3700,#3690,#3680,#3670));
#3720=FACE_OUTER_BOUND('',#3710,.T.);
#3730=ADVANCED_FACE('',(#3720),#3660,.F.);
#3740=COLOUR_RGB('',0.560784339904785,0.588235318660736,
0.600000023841858);
#3750=FILL_AREA_STYLE_COLOUR('',#3740);
#3760=FILL_AREA_STYLE('',(#3750));
#3770=SURFACE_STYLE_FILL_AREA(#3760);
#3780=SURFACE_SIDE_STYLE('',(#3770));
#3790=SURFACE_STYLE_USAGE(.BOTH.,#3780);
#3800=PRESENTATION_STYLE_ASSIGNMENT((#3790));
#3810=CARTESIAN_POINT('',(0.,3.5,0.));
#3820=DIRECTION('',(0.,-1.,0.));
#3830=DIRECTION('',(-1.,0.,0.));
#3840=AXIS2_PLACEMENT_3D('',#3810,#3820,#3830);
#3850=CYLINDRICAL_SURFACE('',#3840,0.800000000000001);
#3860=ORIENTED_EDGE('',*,*,#1340,.T.);
#3870=ORIENTED_EDGE('',*,*,#1090,.F.);
#3880=ORIENTED_EDGE('',*,*,#1490,.F.);
#3890=ORIENTED_EDGE('',*,*,#2930,.F.);
#3900=EDGE_LOOP('',(#3890,#3880,#3870,#3860));
#3910=FACE_OUTER_BOUND('',#3900,.T.);
#3920=ADVANCED_FACE('',(#3910),#3850,.T.);
#3930=COLOUR_RGB('',0.823529481887817,0.823529481887817,
0.784313797950745);
#3940=FILL_AREA_STYLE_COLOUR('',#3930);
#3950=FILL_AREA_STYLE('',(#3940));
#3960=SURFACE_STYLE_FILL_AREA(#3950);
#3970=SURFACE_SIDE_STYLE('',(#3960));
#3980=SURFACE_STYLE_USAGE(.BOTH.,#3970);
#3990=PRESENTATION_STYLE_ASSIGNMENT((#3980));
#4000=CARTESIAN_POINT('',(0.,-1.90499654695475,0.));
#4010=DIRECTION('',(0.,-1.,0.));
#4020=DIRECTION('',(-1.,0.,0.));
#4030=AXIS2_PLACEMENT_3D('',#4000,#4010,#4020);
#4040=CONICAL_SURFACE('',#4030,1.1725,0.523598775598299);
#4050=ORIENTED_EDGE('',*,*,#610,.F.);
#4060=ORIENTED_EDGE('',*,*,#1750,.T.);
#4070=ORIENTED_EDGE('',*,*,#710,.T.);
#4080=ORIENTED_EDGE('',*,*,#380,.T.);
#4090=EDGE_LOOP('',(#4080,#4070,#4060,#4050));
#4100=FACE_OUTER_BOUND('',#4090,.T.);
#4110=ADVANCED_FACE('',(#4100),#4040,.F.);
#4120=COLOUR_RGB('',0.823529481887817,0.823529481887817,
0.784313797950745);
#4130=FILL_AREA_STYLE_COLOUR('',#4120);
#4140=FILL_AREA_STYLE('',(#4130));
#4150=SURFACE_STYLE_FILL_AREA(#4140);
#4160=SURFACE_SIDE_STYLE('',(#4150));
#4170=SURFACE_STYLE_USAGE(.BOTH.,#4160);
#4180=PRESENTATION_STYLE_ASSIGNMENT((#4170));
#4190=CLOSED_SHELL('',(#420,#820,#1150,#1540,#1940,#2270,#2660,#2970,
#3160,#3350,#3540,#3730,#3920,#4110));
#4200=MANIFOLD_SOLID_BREP('',#4190);
#4210=CARTESIAN_POINT('',(0.,0.,0.));
#4220=DIRECTION('',(0.,0.,1.));
#4230=DIRECTION('',(1.,0.,0.));
#4240=AXIS2_PLACEMENT_3D('',#4210,#4220,#4230);
#4250=APPLICATION_CONTEXT(' ');
#4260=APPLICATION_PROTOCOL_DEFINITION(' ','automotive_design',1998,#4250
);
#4270=PRODUCT_CONTEXT('',#4250,'mechanical');
#4280=PRODUCT_DEFINITION_CONTEXT('part definition',#4250,'design');
#4290=PRODUCT('AI_0.75-10_GY-GB-select','AI_0.75-10_GY-GB-select','',(
#4270));
#4300=PRODUCT_RELATED_PRODUCT_CATEGORY('part',' ',(#4290));
#4310=PRODUCT_DEFINITION_FORMATION_WITH_SPECIFIED_SOURCE('','',#4290,
.BOUGHT.);
#4320=PRODUCT_DEFINITION('',' ',#4310,#4280);
#4330=PRODUCT_DEFINITION_SHAPE('','',#4320);
#4340=DIMENSIONAL_EXPONENTS(1.,0.,0.,0.,0.,0.,0.);
#4350=DIMENSIONAL_EXPONENTS(0.,0.,0.,0.,0.,0.,0.);
#4360=DIMENSIONAL_EXPONENTS(0.,0.,0.,0.,0.,0.,0.);
#4370=(LENGTH_UNIT() NAMED_UNIT(*) SI_UNIT(.MILLI.,.METRE.));
#4380=(NAMED_UNIT(*) PLANE_ANGLE_UNIT() SI_UNIT($,.RADIAN.));
#4390=(NAMED_UNIT(*) SI_UNIT($,.STERADIAN.) SOLID_ANGLE_UNIT());
#4400=(GEOMETRIC_REPRESENTATION_CONTEXT(3) 
GLOBAL_UNCERTAINTY_ASSIGNED_CONTEXT((#4410)) 
GLOBAL_UNIT_ASSIGNED_CONTEXT((#4370,#4380,#4390)) REPRESENTATION_CONTEXT
('',''));
#4410=UNCERTAINTY_MEASURE_WITH_UNIT(LENGTH_MEASURE(1.E-6),#4370,
'distance_accuracy_value','maximum gap value');
#4420=ADVANCED_BREP_SHAPE_REPRESENTATION('',(#4240,#4200),#4400);
#4430=SHAPE_DEFINITION_REPRESENTATION(#4330,#4420);
#4440=COLOUR_RGB('',0.560784339904785,0.588235318660736,
0.600000023841858);
#4450=FILL_AREA_STYLE_COLOUR('',#4440);
#4460=FILL_AREA_STYLE('',(#4450));
#4470=SURFACE_STYLE_FILL_AREA(#4460);
#4480=SURFACE_SIDE_STYLE('',(#4470));
#4490=SURFACE_STYLE_USAGE(.BOTH.,#4480);
#4500=PRESENTATION_STYLE_ASSIGNMENT((#4490));
#4510=STYLED_ITEM('',(#4500),#4200);
#4520=OVER_RIDING_STYLED_ITEM('',(#490),#420,#4510);
#4530=OVER_RIDING_STYLED_ITEM('',(#890),#820,#4510);
#4540=OVER_RIDING_STYLED_ITEM('',(#1220),#1150,#4510);
#4550=OVER_RIDING_STYLED_ITEM('',(#1610),#1540,#4510);
#4560=OVER_RIDING_STYLED_ITEM('',(#2010),#1940,#4510);
#4570=OVER_RIDING_STYLED_ITEM('',(#2340),#2270,#4510);
#4580=OVER_RIDING_STYLED_ITEM('',(#2730),#2660,#4510);
#4590=OVER_RIDING_STYLED_ITEM('',(#3040),#2970,#4510);
#4600=OVER_RIDING_STYLED_ITEM('',(#3230),#3160,#4510);
#4610=OVER_RIDING_STYLED_ITEM('',(#3420),#3350,#4510);
#4620=OVER_RIDING_STYLED_ITEM('',(#3610),#3540,#4510);
#4630=OVER_RIDING_STYLED_ITEM('',(#3800),#3730,#4510);
#4640=OVER_RIDING_STYLED_ITEM('',(#3990),#3920,#4510);
#4650=OVER_RIDING_STYLED_ITEM('',(#4180),#4110,#4510);
#4660=DRAUGHTING_MODEL('',(#4510,#4520,#4530,#4540,#4550,#4560,#4570,
#4580,#4590,#4600,#4610,#4620,#4630,#4640,#4650),#4400);
#4670=CARTESIAN_POINT('',(1.95,6.,1.95));
#4680=DIRECTION('',(0.,0.,1.));
#4690=DIRECTION('',(1.,0.,0.));
#4700=AXIS2_PLACEMENT_3D('',#4670,#4680,#4690);
#4710=ITEM_DEFINED_TRANSFORMATION('AI_0.75-10_GY-GB-select','',#4240,
#4700);
#4720=APPLICATION_CONTEXT(' ');
#4730=APPLICATION_PROTOCOL_DEFINITION(' ','automotive_design',1998,#4720
);
#4740=PRODUCT_CONTEXT('',#4720,'mechanical');
#4750=PRODUCT_DEFINITION_CONTEXT('part definition',#4720,'design');
#4760=PRODUCT('AI_0.75-10_GY-GB-select','AI_0.75-10_GY-GB-select','',(
#4740));
#4770=PRODUCT_RELATED_PRODUCT_CATEGORY('part',' ',(#4760));
#4780=PRODUCT_DEFINITION_FORMATION_WITH_SPECIFIED_SOURCE('','',#4760,
.BOUGHT.);
#4790=PRODUCT_DEFINITION('',' ',#4780,#4750);
#4800=PRODUCT_DEFINITION_SHAPE('','',#4790);
#4810=DIMENSIONAL_EXPONENTS(1.,0.,0.,0.,0.,0.,0.);
#4820=DIMENSIONAL_EXPONENTS(0.,0.,0.,0.,0.,0.,0.);
#4830=DIMENSIONAL_EXPONENTS(0.,0.,0.,0.,0.,0.,0.);
#4840=(LENGTH_UNIT() NAMED_UNIT(*) SI_UNIT(.MILLI.,.METRE.));
#4850=(NAMED_UNIT(*) PLANE_ANGLE_UNIT() SI_UNIT($,.RADIAN.));
#4860=(NAMED_UNIT(*) SI_UNIT($,.STERADIAN.) SOLID_ANGLE_UNIT());
#4870=(GEOMETRIC_REPRESENTATION_CONTEXT(3) 
GLOBAL_UNCERTAINTY_ASSIGNED_CONTEXT((#4880)) 
GLOBAL_UNIT_ASSIGNED_CONTEXT((#4840,#4850,#4860)) REPRESENTATION_CONTEXT
('',''));
#4880=UNCERTAINTY_MEASURE_WITH_UNIT(LENGTH_MEASURE(1.E-6),#4840,
'distance_accuracy_value','maximum gap value');
#4890=SHAPE_REPRESENTATION('',(#4240,#4700),#4870);
#4900=SHAPE_DEFINITION_REPRESENTATION(#4800,#4890);
#4910=(REPRESENTATION_RELATIONSHIP('','',#4420,#4890) 
REPRESENTATION_RELATIONSHIP_WITH_TRANSFORMATION(#4710) 
SHAPE_REPRESENTATION_RELATIONSHIP());
#4920=NEXT_ASSEMBLY_USAGE_OCCURRENCE('1','','AI_0.75-10_GY-GB-select',
#4790,#4320,'');
#4930=PRODUCT_DEFINITION_SHAPE('','',#4920);
#4940=CONTEXT_DEPENDENT_SHAPE_REPRESENTATION(#4910,#4930);
ENDSEC;
END-ISO-10303-21;
