ISO-10303-21;
HEADER;
FILE_DESCRIPTION(('Creo Elements/Direct Modeling STEP Export'),'2;1');
FILE_NAME(
'C:/Temp/JobServerData/JobServer Files/d06eee50-9d3a-437c-bc6f-c1d5dc852
0da/work/output/model.stp','2024-09-24T 9:37:14',(''),(''),
'Creo Elements/Direct Modeling STEP processor for AP214 (Solid Model)',
'Creo Elements/Direct Modeling 20.1D  10-Oct-2020 (C) Parametric Technol
ogy GmbH','');
FILE_SCHEMA(('AUTOMOTIVE_DESIGN { 1 0 10303 214 1 1 1 1 }'));
ENDSEC;
DATA;
#10=CARTESIAN_POINT('',(0.,3.5,0.));
#20=DIRECTION('',(0.,-1.,0.));
#30=DIRECTION('',(-1.,0.,0.));
#40=AXIS2_PLACEMENT_3D('',#10,#20,#30);
#50=CYLINDRICAL_SURFACE('',#40,0.800000000000001);
#60=CARTESIAN_POINT('',(0.800000000000001,3.5,-9.79717439317883E-17));
#70=DIRECTION('',(0.,-1.,0.));
#80=VECTOR('',#70,1.);
#90=LINE('',#60,#80);
#100=CARTESIAN_POINT('',(0.800000000000001,6.97,-9.79717439317883E-17));
#110=VERTEX_POINT('',#100);
#120=CARTESIAN_POINT('',(0.800000000000001,-1.03000000000001,
-9.79717439317883E-17));
#130=VERTEX_POINT('',#120);
#140=EDGE_CURVE('',#110,#130,#90,.T.);
#150=ORIENTED_EDGE('',*,*,#140,.F.);
#160=CARTESIAN_POINT('',(0.,-1.03000000000001,0.));
#170=DIRECTION('',(0.,-1.,0.));
#180=DIRECTION('',(-1.,0.,0.));
#190=AXIS2_PLACEMENT_3D('',#160,#170,#180);
#200=CIRCLE('',#190,0.800000000000001);
#210=CARTESIAN_POINT('',(-0.800000000000001,-1.03000000000001,0.));
#220=VERTEX_POINT('',#210);
#230=EDGE_CURVE('',#130,#220,#200,.T.);
#240=ORIENTED_EDGE('',*,*,#230,.F.);
#250=CARTESIAN_POINT('',(-0.800000000000001,3.5,0.));
#260=DIRECTION('',(0.,-1.,0.));
#270=VECTOR('',#260,1.);
#280=LINE('',#250,#270);
#290=CARTESIAN_POINT('',(-0.800000000000001,6.97,0.));
#300=VERTEX_POINT('',#290);
#310=EDGE_CURVE('',#300,#220,#280,.T.);
#320=ORIENTED_EDGE('',*,*,#310,.T.);
#330=CARTESIAN_POINT('',(0.,6.97,0.));
#340=DIRECTION('',(0.,1.,0.));
#350=DIRECTION('',(1.,0.,0.));
#360=AXIS2_PLACEMENT_3D('',#330,#340,#350);
#370=CIRCLE('',#360,0.8);
#380=EDGE_CURVE('',#300,#110,#370,.T.);
#390=ORIENTED_EDGE('',*,*,#380,.F.);
#400=EDGE_LOOP('',(#390,#320,#240,#150));
#410=FACE_OUTER_BOUND('',#400,.T.);
#420=ADVANCED_FACE('',(#410),#50,.T.);
#430=COLOUR_RGB('',0.647058844566345,0.647058844566345,0.65490198135376)
;
#440=FILL_AREA_STYLE_COLOUR('',#430);
#450=FILL_AREA_STYLE('',(#440));
#460=SURFACE_STYLE_FILL_AREA(#450);
#470=SURFACE_SIDE_STYLE('',(#460));
#480=SURFACE_STYLE_USAGE(.BOTH.,#470);
#490=PRESENTATION_STYLE_ASSIGNMENT((#480));
#500=CARTESIAN_POINT('',(0.,3.5,0.));
#510=DIRECTION('',(0.,1.,0.));
#520=DIRECTION('',(1.,0.,0.));
#530=AXIS2_PLACEMENT_3D('',#500,#510,#520);
#540=CYLINDRICAL_SURFACE('',#530,0.650000000000001);
#550=CARTESIAN_POINT('',(0.650000000000001,3.5,0.));
#560=DIRECTION('',(0.,1.,0.));
#570=VECTOR('',#560,1.);
#580=LINE('',#550,#570);
#590=CARTESIAN_POINT('',(0.650000000000001,-1.,0.));
#600=VERTEX_POINT('',#590);
#610=CARTESIAN_POINT('',(0.650000000000001,6.97,0.));
#620=VERTEX_POINT('',#610);
#630=EDGE_CURVE('',#600,#620,#580,.T.);
#640=ORIENTED_EDGE('',*,*,#630,.F.);
#650=CARTESIAN_POINT('',(0.,6.97,0.));
#660=DIRECTION('',(0.,1.,0.));
#670=DIRECTION('',(1.,0.,0.));
#680=AXIS2_PLACEMENT_3D('',#650,#660,#670);
#690=CIRCLE('',#680,0.65);
#700=CARTESIAN_POINT('',(-0.650000000000001,6.97,-7.9602041944578E-17));
#710=VERTEX_POINT('',#700);
#720=EDGE_CURVE('',#710,#620,#690,.T.);
#730=ORIENTED_EDGE('',*,*,#720,.T.);
#740=CARTESIAN_POINT('',(-0.650000000000001,3.5,-7.9602041944578E-17));
#750=DIRECTION('',(0.,1.,0.));
#760=VECTOR('',#750,1.);
#770=LINE('',#740,#760);
#780=CARTESIAN_POINT('',(-0.650000000000001,-1.,-7.9602041944578E-17));
#790=VERTEX_POINT('',#780);
#800=EDGE_CURVE('',#790,#710,#770,.T.);
#810=ORIENTED_EDGE('',*,*,#800,.T.);
#820=CARTESIAN_POINT('',(0.,-1.,0.));
#830=DIRECTION('',(0.,1.,0.));
#840=DIRECTION('',(1.,0.,0.));
#850=AXIS2_PLACEMENT_3D('',#820,#830,#840);
#860=CIRCLE('',#850,0.650000000000001);
#870=EDGE_CURVE('',#790,#600,#860,.T.);
#880=ORIENTED_EDGE('',*,*,#870,.F.);
#890=EDGE_LOOP('',(#880,#810,#730,#640));
#900=FACE_OUTER_BOUND('',#890,.T.);
#910=ADVANCED_FACE('',(#900),#540,.F.);
#920=COLOUR_RGB('',0.647058844566345,0.647058844566345,0.65490198135376)
;
#930=FILL_AREA_STYLE_COLOUR('',#920);
#940=FILL_AREA_STYLE('',(#930));
#950=SURFACE_STYLE_FILL_AREA(#940);
#960=SURFACE_SIDE_STYLE('',(#950));
#970=SURFACE_STYLE_USAGE(.BOTH.,#960);
#980=PRESENTATION_STYLE_ASSIGNMENT((#970));
#990=CARTESIAN_POINT('',(1.825,-7.03,0.));
#1000=DIRECTION('',(-0.,1.,0.));
#1010=DIRECTION('',(1.,0.,0.));
#1020=AXIS2_PLACEMENT_3D('',#990,#1000,#1010);
#1030=PLANE('',#1020);
#1040=CARTESIAN_POINT('',(0.,-7.03,0.));
#1050=DIRECTION('',(0.,-1.,0.));
#1060=DIRECTION('',(-1.,0.,0.));
#1070=AXIS2_PLACEMENT_3D('',#1040,#1050,#1060);
#1080=CIRCLE('',#1070,1.83267998579976);
#1090=CARTESIAN_POINT('',(-1.83267998579976,-7.03,0.));
#1100=VERTEX_POINT('',#1090);
#1110=CARTESIAN_POINT('',(1.83267998579976,-7.03,-2.24438567847109E-16))
;
#1120=VERTEX_POINT('',#1110);
#1130=EDGE_CURVE('',#1100,#1120,#1080,.T.);
#1140=ORIENTED_EDGE('',*,*,#1130,.F.);
#1150=EDGE_CURVE('',#1120,#1100,#1080,.T.);
#1160=ORIENTED_EDGE('',*,*,#1150,.F.);
#1170=EDGE_LOOP('',(#1160,#1140));
#1180=FACE_BOUND('',#1170,.T.);
#1190=CARTESIAN_POINT('',(0.,-7.03,0.));
#1200=DIRECTION('',(0.,1.,0.));
#1210=DIRECTION('',(1.,0.,0.));
#1220=AXIS2_PLACEMENT_3D('',#1190,#1200,#1210);
#1230=CIRCLE('',#1220,1.95);
#1240=CARTESIAN_POINT('',(1.95,-7.03,0.));
#1250=VERTEX_POINT('',#1240);
#1260=CARTESIAN_POINT('',(-1.95,-7.03,-2.38806125833733E-16));
#1270=VERTEX_POINT('',#1260);
#1280=EDGE_CURVE('',#1250,#1270,#1230,.T.);
#1290=ORIENTED_EDGE('',*,*,#1280,.F.);
#1300=EDGE_CURVE('',#1270,#1250,#1230,.T.);
#1310=ORIENTED_EDGE('',*,*,#1300,.F.);
#1320=EDGE_LOOP('',(#1310,#1290));
#1330=FACE_OUTER_BOUND('',#1320,.T.);
#1340=ADVANCED_FACE('',(#1180,#1330),#1030,.F.);
#1350=COLOUR_RGB('',0.450980424880981,0.521568655967712,0.5686274766922)
;
#1360=FILL_AREA_STYLE_COLOUR('',#1350);
#1370=FILL_AREA_STYLE('',(#1360));
#1380=SURFACE_STYLE_FILL_AREA(#1370);
#1390=SURFACE_SIDE_STYLE('',(#1380));
#1400=SURFACE_STYLE_USAGE(.BOTH.,#1390);
#1410=PRESENTATION_STYLE_ASSIGNMENT((#1400));
#1420=CARTESIAN_POINT('',(0.725,6.97,0.));
#1430=DIRECTION('',(-0.,-1.,-0.));
#1440=DIRECTION('',(-1.,0.,0.));
#1450=AXIS2_PLACEMENT_3D('',#1420,#1430,#1440);
#1460=PLANE('',#1450);
#1470=EDGE_CURVE('',#620,#710,#690,.T.);
#1480=ORIENTED_EDGE('',*,*,#1470,.F.);
#1490=ORIENTED_EDGE('',*,*,#720,.F.);
#1500=EDGE_LOOP('',(#1490,#1480));
#1510=FACE_BOUND('',#1500,.T.);
#1520=EDGE_CURVE('',#110,#300,#370,.T.);
#1530=ORIENTED_EDGE('',*,*,#1520,.T.);
#1540=ORIENTED_EDGE('',*,*,#380,.T.);
#1550=EDGE_LOOP('',(#1540,#1530));
#1560=FACE_OUTER_BOUND('',#1550,.T.);
#1570=ADVANCED_FACE('',(#1510,#1560),#1460,.F.);
#1580=COLOUR_RGB('',0.647058844566345,0.647058844566345,0.65490198135376
);
#1590=FILL_AREA_STYLE_COLOUR('',#1580);
#1600=FILL_AREA_STYLE('',(#1590));
#1610=SURFACE_STYLE_FILL_AREA(#1600);
#1620=SURFACE_SIDE_STYLE('',(#1610));
#1630=SURFACE_STYLE_USAGE(.BOTH.,#1620);
#1640=PRESENTATION_STYLE_ASSIGNMENT((#1630));
#1650=CARTESIAN_POINT('',(0.,-2.18,0.));
#1660=DIRECTION('',(0.,-1.,0.));
#1670=DIRECTION('',(-1.,0.,0.));
#1680=AXIS2_PLACEMENT_3D('',#1650,#1660,#1670);
#1690=CONICAL_SURFACE('',#1680,1.94999999999999,0.785398163397448);
#1700=CARTESIAN_POINT('',(1.94999999999999,-2.18,-2.38806125833733E-16))
;
#1710=DIRECTION('',(0.707106781186547,-0.707106781186548,
-8.65956056235493E-17));
#1720=VECTOR('',#1710,2.75771644662753);
#1730=LINE('',#1700,#1720);
#1740=CARTESIAN_POINT('',(1.95,-2.18,-2.38806125833733E-16));
#1750=VERTEX_POINT('',#1740);
#1760=EDGE_CURVE('',#130,#1750,#1730,.T.);
#1770=ORIENTED_EDGE('',*,*,#1760,.F.);
#1780=CARTESIAN_POINT('',(0.,-2.18,0.));
#1790=DIRECTION('',(0.,1.,0.));
#1800=DIRECTION('',(1.,0.,0.));
#1810=AXIS2_PLACEMENT_3D('',#1780,#1790,#1800);
#1820=CIRCLE('',#1810,1.94999999999999);
#1830=CARTESIAN_POINT('',(-1.94999999999999,-2.18,0.));
#1840=VERTEX_POINT('',#1830);
#1850=EDGE_CURVE('',#1840,#1750,#1820,.T.);
#1860=ORIENTED_EDGE('',*,*,#1850,.T.);
#1870=CARTESIAN_POINT('',(-1.94999999999999,-2.18,0.));
#1880=DIRECTION('',(-0.707106781186547,-0.707106781186548,0.));
#1890=VECTOR('',#1880,2.75771644662753);
#1900=LINE('',#1870,#1890);
#1910=EDGE_CURVE('',#220,#1840,#1900,.T.);
#1920=ORIENTED_EDGE('',*,*,#1910,.T.);
#1930=ORIENTED_EDGE('',*,*,#230,.T.);
#1940=EDGE_LOOP('',(#1930,#1920,#1860,#1770));
#1950=FACE_OUTER_BOUND('',#1940,.T.);
#1960=ADVANCED_FACE('',(#1950),#1690,.T.);
#1970=COLOUR_RGB('',0.450980424880981,0.521568655967712,0.5686274766922)
;
#1980=FILL_AREA_STYLE_COLOUR('',#1970);
#1990=FILL_AREA_STYLE('',(#1980));
#2000=SURFACE_STYLE_FILL_AREA(#1990);
#2010=SURFACE_SIDE_STYLE('',(#2000));
#2020=SURFACE_STYLE_USAGE(.BOTH.,#2010);
#2030=PRESENTATION_STYLE_ASSIGNMENT((#2020));
#2040=CARTESIAN_POINT('',(0.,-4.09,0.));
#2050=DIRECTION('',(0.,1.,0.));
#2060=DIRECTION('',(1.,0.,0.));
#2070=AXIS2_PLACEMENT_3D('',#2040,#2050,#2060);
#2080=CYLINDRICAL_SURFACE('',#2070,1.95);
#2090=CARTESIAN_POINT('',(1.95,-4.09,0.));
#2100=DIRECTION('',(0.,1.,0.));
#2110=VECTOR('',#2100,1.);
#2120=LINE('',#2090,#2110);
#2130=EDGE_CURVE('',#1250,#1750,#2120,.T.);
#2140=ORIENTED_EDGE('',*,*,#2130,.T.);
#2150=ORIENTED_EDGE('',*,*,#1300,.T.);
#2160=CARTESIAN_POINT('',(-1.95,-4.09,-2.38806125833733E-16));
#2170=DIRECTION('',(0.,1.,0.));
#2180=VECTOR('',#2170,1.);
#2190=LINE('',#2160,#2180);
#2200=EDGE_CURVE('',#1270,#1840,#2190,.T.);
#2210=ORIENTED_EDGE('',*,*,#2200,.F.);
#2220=ORIENTED_EDGE('',*,*,#1850,.F.);
#2230=EDGE_LOOP('',(#2220,#2210,#2150,#2140));
#2240=FACE_OUTER_BOUND('',#2230,.T.);
#2250=ADVANCED_FACE('',(#2240),#2080,.T.);
#2260=COLOUR_RGB('',0.450980424880981,0.521568655967712,0.5686274766922)
;
#2270=FILL_AREA_STYLE_COLOUR('',#2260);
#2280=FILL_AREA_STYLE('',(#2270));
#2290=SURFACE_STYLE_FILL_AREA(#2280);
#2300=SURFACE_SIDE_STYLE('',(#2290));
#2310=SURFACE_STYLE_USAGE(.BOTH.,#2300);
#2320=PRESENTATION_STYLE_ASSIGNMENT((#2310));
#2330=CARTESIAN_POINT('',(0.,-1.90499654695475,0.));
#2340=DIRECTION('',(0.,-1.,0.));
#2350=DIRECTION('',(-1.,0.,0.));
#2360=AXIS2_PLACEMENT_3D('',#2330,#2340,#2350);
#2370=CONICAL_SURFACE('',#2360,1.1725,0.523598775598299);
#2380=CARTESIAN_POINT('',(-1.1725,-1.90499654695475,0.));
#2390=DIRECTION('',(-0.5,-0.866025403784439,0.));
#2400=VECTOR('',#2390,2.34500000000001);
#2410=LINE('',#2380,#2400);
#2420=CARTESIAN_POINT('',(-1.1725,-1.90499654695475,0.));
#2430=VERTEX_POINT('',#2420);
#2440=EDGE_CURVE('',#790,#2430,#2410,.T.);
#2450=ORIENTED_EDGE('',*,*,#2440,.T.);
#2460=EDGE_CURVE('',#600,#790,#860,.T.);
#2470=ORIENTED_EDGE('',*,*,#2460,.T.);
#2480=CARTESIAN_POINT('',(1.1725,-1.90499654695475,-1.43589837200028E-16
));
#2490=DIRECTION('',(0.5,-0.866025403784439,-6.12323399573677E-17));
#2500=VECTOR('',#2490,2.34500000000001);
#2510=LINE('',#2480,#2500);
#2520=CARTESIAN_POINT('',(1.17250000000001,-1.90499654695475,
-1.43589837200028E-16));
#2530=VERTEX_POINT('',#2520);
#2540=EDGE_CURVE('',#600,#2530,#2510,.T.);
#2550=ORIENTED_EDGE('',*,*,#2540,.F.);
#2560=CARTESIAN_POINT('',(0.,-1.90499654695475,0.));
#2570=DIRECTION('',(0.,-1.,0.));
#2580=DIRECTION('',(-1.,0.,0.));
#2590=AXIS2_PLACEMENT_3D('',#2560,#2570,#2580);
#2600=CIRCLE('',#2590,1.1725);
#2610=EDGE_CURVE('',#2430,#2530,#2600,.T.);
#2620=ORIENTED_EDGE('',*,*,#2610,.T.);
#2630=EDGE_LOOP('',(#2620,#2550,#2470,#2450));
#2640=FACE_OUTER_BOUND('',#2630,.T.);
#2650=ADVANCED_FACE('',(#2640),#2370,.F.);
#2660=COLOUR_RGB('',0.647058844566345,0.647058844566345,0.65490198135376
);
#2670=FILL_AREA_STYLE_COLOUR('',#2660);
#2680=FILL_AREA_STYLE('',(#2670));
#2690=SURFACE_STYLE_FILL_AREA(#2680);
#2700=SURFACE_SIDE_STYLE('',(#2690));
#2710=SURFACE_STYLE_USAGE(.BOTH.,#2700);
#2720=PRESENTATION_STYLE_ASSIGNMENT((#2710));
#2730=CARTESIAN_POINT('',(0.,-6.,0.));
#2740=DIRECTION('',(0.,-1.,0.));
#2750=DIRECTION('',(-1.,0.,0.));
#2760=AXIS2_PLACEMENT_3D('',#2730,#2740,#2750);
#2770=CONICAL_SURFACE('',#2760,1.7,0.12811003339698);
#2780=CARTESIAN_POINT('',(1.7,-6.,-2.0818995585505E-16));
#2790=DIRECTION('',(0.127759893346595,-0.991805126853086,
-1.56460744446314E-17));
#2800=VECTOR('',#2790,13.3062102313137);
#2810=LINE('',#2780,#2800);
#2820=EDGE_CURVE('',#2530,#1120,#2810,.T.);
#2830=ORIENTED_EDGE('',*,*,#2820,.T.);
#2840=EDGE_CURVE('',#2530,#2430,#2600,.T.);
#2850=ORIENTED_EDGE('',*,*,#2840,.F.);
#2860=CARTESIAN_POINT('',(-1.7,-6.,0.));
#2870=DIRECTION('',(-0.127759893346595,-0.991805126853086,0.));
#2880=VECTOR('',#2870,13.3062102313137);
#2890=LINE('',#2860,#2880);
#2900=EDGE_CURVE('',#2430,#1100,#2890,.T.);
#2910=ORIENTED_EDGE('',*,*,#2900,.F.);
#2920=ORIENTED_EDGE('',*,*,#1150,.T.);
#2930=EDGE_LOOP('',(#2920,#2910,#2850,#2830));
#2940=FACE_OUTER_BOUND('',#2930,.T.);
#2950=ADVANCED_FACE('',(#2940),#2770,.F.);
#2960=COLOUR_RGB('',0.450980424880981,0.521568655967712,0.5686274766922)
;
#2970=FILL_AREA_STYLE_COLOUR('',#2960);
#2980=FILL_AREA_STYLE('',(#2970));
#2990=SURFACE_STYLE_FILL_AREA(#2980);
#3000=SURFACE_SIDE_STYLE('',(#2990));
#3010=SURFACE_STYLE_USAGE(.BOTH.,#3000);
#3020=PRESENTATION_STYLE_ASSIGNMENT((#3010));
#3030=CARTESIAN_POINT('',(0.,-4.09,0.));
#3040=DIRECTION('',(0.,1.,0.));
#3050=DIRECTION('',(1.,0.,0.));
#3060=AXIS2_PLACEMENT_3D('',#3030,#3040,#3050);
#3070=CYLINDRICAL_SURFACE('',#3060,1.95);
#3080=EDGE_CURVE('',#1750,#1840,#1820,.T.);
#3090=ORIENTED_EDGE('',*,*,#3080,.F.);
#3100=ORIENTED_EDGE('',*,*,#2200,.T.);
#3110=ORIENTED_EDGE('',*,*,#1280,.T.);
#3120=ORIENTED_EDGE('',*,*,#2130,.F.);
#3130=EDGE_LOOP('',(#3120,#3110,#3100,#3090));
#3140=FACE_OUTER_BOUND('',#3130,.T.);
#3150=ADVANCED_FACE('',(#3140),#3070,.T.);
#3160=COLOUR_RGB('',0.450980424880981,0.521568655967712,0.5686274766922)
;
#3170=FILL_AREA_STYLE_COLOUR('',#3160);
#3180=FILL_AREA_STYLE('',(#3170));
#3190=SURFACE_STYLE_FILL_AREA(#3180);
#3200=SURFACE_SIDE_STYLE('',(#3190));
#3210=SURFACE_STYLE_USAGE(.BOTH.,#3200);
#3220=PRESENTATION_STYLE_ASSIGNMENT((#3210));
#3230=CARTESIAN_POINT('',(0.,3.5,0.));
#3240=DIRECTION('',(0.,1.,0.));
#3250=DIRECTION('',(1.,0.,0.));
#3260=AXIS2_PLACEMENT_3D('',#3230,#3240,#3250);
#3270=CYLINDRICAL_SURFACE('',#3260,0.650000000000001);
#3280=ORIENTED_EDGE('',*,*,#2460,.F.);
#3290=ORIENTED_EDGE('',*,*,#800,.F.);
#3300=ORIENTED_EDGE('',*,*,#1470,.T.);
#3310=ORIENTED_EDGE('',*,*,#630,.T.);
#3320=EDGE_LOOP('',(#3310,#3300,#3290,#3280));
#3330=FACE_OUTER_BOUND('',#3320,.T.);
#3340=ADVANCED_FACE('',(#3330),#3270,.F.);
#3350=COLOUR_RGB('',0.647058844566345,0.647058844566345,0.65490198135376
);
#3360=FILL_AREA_STYLE_COLOUR('',#3350);
#3370=FILL_AREA_STYLE('',(#3360));
#3380=SURFACE_STYLE_FILL_AREA(#3370);
#3390=SURFACE_SIDE_STYLE('',(#3380));
#3400=SURFACE_STYLE_USAGE(.BOTH.,#3390);
#3410=PRESENTATION_STYLE_ASSIGNMENT((#3400));
#3420=CARTESIAN_POINT('',(0.,-1.90499654695475,0.));
#3430=DIRECTION('',(0.,-1.,0.));
#3440=DIRECTION('',(-1.,0.,0.));
#3450=AXIS2_PLACEMENT_3D('',#3420,#3430,#3440);
#3460=CONICAL_SURFACE('',#3450,1.1725,0.523598775598299);
#3470=ORIENTED_EDGE('',*,*,#2440,.F.);
#3480=ORIENTED_EDGE('',*,*,#2840,.T.);
#3490=ORIENTED_EDGE('',*,*,#2540,.T.);
#3500=ORIENTED_EDGE('',*,*,#870,.T.);
#3510=EDGE_LOOP('',(#3500,#3490,#3480,#3470));
#3520=FACE_OUTER_BOUND('',#3510,.T.);
#3530=ADVANCED_FACE('',(#3520),#3460,.F.);
#3540=COLOUR_RGB('',0.647058844566345,0.647058844566345,0.65490198135376
);
#3550=FILL_AREA_STYLE_COLOUR('',#3540);
#3560=FILL_AREA_STYLE('',(#3550));
#3570=SURFACE_STYLE_FILL_AREA(#3560);
#3580=SURFACE_SIDE_STYLE('',(#3570));
#3590=SURFACE_STYLE_USAGE(.BOTH.,#3580);
#3600=PRESENTATION_STYLE_ASSIGNMENT((#3590));
#3610=CARTESIAN_POINT('',(0.,-2.18,0.));
#3620=DIRECTION('',(0.,-1.,0.));
#3630=DIRECTION('',(-1.,0.,0.));
#3640=AXIS2_PLACEMENT_3D('',#3610,#3620,#3630);
#3650=CONICAL_SURFACE('',#3640,1.94999999999999,0.785398163397448);
#3660=ORIENTED_EDGE('',*,*,#3080,.T.);
#3670=ORIENTED_EDGE('',*,*,#1760,.T.);
#3680=EDGE_CURVE('',#220,#130,#200,.T.);
#3690=ORIENTED_EDGE('',*,*,#3680,.T.);
#3700=ORIENTED_EDGE('',*,*,#1910,.F.);
#3710=EDGE_LOOP('',(#3700,#3690,#3670,#3660));
#3720=FACE_OUTER_BOUND('',#3710,.T.);
#3730=ADVANCED_FACE('',(#3720),#3650,.T.);
#3740=COLOUR_RGB('',0.450980424880981,0.521568655967712,0.5686274766922)
;
#3750=FILL_AREA_STYLE_COLOUR('',#3740);
#3760=FILL_AREA_STYLE('',(#3750));
#3770=SURFACE_STYLE_FILL_AREA(#3760);
#3780=SURFACE_SIDE_STYLE('',(#3770));
#3790=SURFACE_STYLE_USAGE(.BOTH.,#3780);
#3800=PRESENTATION_STYLE_ASSIGNMENT((#3790));
#3810=CARTESIAN_POINT('',(0.,-6.,0.));
#3820=DIRECTION('',(0.,-1.,0.));
#3830=DIRECTION('',(-1.,0.,0.));
#3840=AXIS2_PLACEMENT_3D('',#3810,#3820,#3830);
#3850=CONICAL_SURFACE('',#3840,1.7,0.12811003339698);
#3860=ORIENTED_EDGE('',*,*,#2820,.F.);
#3870=ORIENTED_EDGE('',*,*,#1130,.T.);
#3880=ORIENTED_EDGE('',*,*,#2900,.T.);
#3890=ORIENTED_EDGE('',*,*,#2610,.F.);
#3900=EDGE_LOOP('',(#3890,#3880,#3870,#3860));
#3910=FACE_OUTER_BOUND('',#3900,.T.);
#3920=ADVANCED_FACE('',(#3910),#3850,.F.);
#3930=COLOUR_RGB('',0.450980424880981,0.521568655967712,0.5686274766922)
;
#3940=FILL_AREA_STYLE_COLOUR('',#3930);
#3950=FILL_AREA_STYLE('',(#3940));
#3960=SURFACE_STYLE_FILL_AREA(#3950);
#3970=SURFACE_SIDE_STYLE('',(#3960));
#3980=SURFACE_STYLE_USAGE(.BOTH.,#3970);
#3990=PRESENTATION_STYLE_ASSIGNMENT((#3980));
#4000=CARTESIAN_POINT('',(0.,3.5,0.));
#4010=DIRECTION('',(0.,-1.,0.));
#4020=DIRECTION('',(-1.,0.,0.));
#4030=AXIS2_PLACEMENT_3D('',#4000,#4010,#4020);
#4040=CYLINDRICAL_SURFACE('',#4030,0.800000000000001);
#4050=ORIENTED_EDGE('',*,*,#3680,.F.);
#4060=ORIENTED_EDGE('',*,*,#140,.T.);
#4070=ORIENTED_EDGE('',*,*,#1520,.F.);
#4080=ORIENTED_EDGE('',*,*,#310,.F.);
#4090=EDGE_LOOP('',(#4080,#4070,#4060,#4050));
#4100=FACE_OUTER_BOUND('',#4090,.T.);
#4110=ADVANCED_FACE('',(#4100),#4040,.T.);
#4120=COLOUR_RGB('',0.647058844566345,0.647058844566345,0.65490198135376
);
#4130=FILL_AREA_STYLE_COLOUR('',#4120);
#4140=FILL_AREA_STYLE('',(#4130));
#4150=SURFACE_STYLE_FILL_AREA(#4140);
#4160=SURFACE_SIDE_STYLE('',(#4150));
#4170=SURFACE_STYLE_USAGE(.BOTH.,#4160);
#4180=PRESENTATION_STYLE_ASSIGNMENT((#4170));
#4190=CLOSED_SHELL('',(#420,#910,#1340,#1570,#1960,#2250,#2650,#2950,
#3150,#3340,#3530,#3730,#3920,#4110));
#4200=MANIFOLD_SOLID_BREP('',#4190);
#4210=CARTESIAN_POINT('',(0.,0.,0.));
#4220=DIRECTION('',(0.,0.,1.));
#4230=DIRECTION('',(1.,0.,0.));
#4240=AXIS2_PLACEMENT_3D('',#4210,#4220,#4230);
#4250=APPLICATION_CONTEXT(' ');
#4260=APPLICATION_PROTOCOL_DEFINITION(' ','automotive_design',1998,#4250
);
#4270=PRODUCT_CONTEXT('',#4250,'mechanical');
#4280=PRODUCT_DEFINITION_CONTEXT('part definition',#4250,'design');
#4290=PRODUCT('AI-GB 0.75- 8 GY','AI-GB 0.75- 8 GY','',(#4270));
#4300=PRODUCT_RELATED_PRODUCT_CATEGORY('part',' ',(#4290));
#4310=PRODUCT_DEFINITION_FORMATION_WITH_SPECIFIED_SOURCE('','',#4290,
.BOUGHT.);
#4320=PRODUCT_DEFINITION('',' ',#4310,#4280);
#4330=PRODUCT_DEFINITION_SHAPE('','',#4320);
#4340=DIMENSIONAL_EXPONENTS(1.,0.,0.,0.,0.,0.,0.);
#4350=DIMENSIONAL_EXPONENTS(0.,0.,0.,0.,0.,0.,0.);
#4360=DIMENSIONAL_EXPONENTS(0.,0.,0.,0.,0.,0.,0.);
#4370=(LENGTH_UNIT() NAMED_UNIT(*) SI_UNIT(.MILLI.,.METRE.));
#4380=(NAMED_UNIT(*) PLANE_ANGLE_UNIT() SI_UNIT($,.RADIAN.));
#4390=(NAMED_UNIT(*) SI_UNIT($,.STERADIAN.) SOLID_ANGLE_UNIT());
#4400=(GEOMETRIC_REPRESENTATION_CONTEXT(3) 
GLOBAL_UNCERTAINTY_ASSIGNED_CONTEXT((#4410)) 
GLOBAL_UNIT_ASSIGNED_CONTEXT((#4370,#4380,#4390)) REPRESENTATION_CONTEXT
('',''));
#4410=UNCERTAINTY_MEASURE_WITH_UNIT(LENGTH_MEASURE(1.E-6),#4370,
'distance_accuracy_value','maximum gap value');
#4420=ADVANCED_BREP_SHAPE_REPRESENTATION('',(#4240,#4200),#4400);
#4430=SHAPE_DEFINITION_REPRESENTATION(#4330,#4420);
#4440=COLOUR_RGB('',0.600000023841858,0.600000023841858,
0.600000023841858);
#4450=FILL_AREA_STYLE_COLOUR('',#4440);
#4460=FILL_AREA_STYLE('',(#4450));
#4470=SURFACE_STYLE_FILL_AREA(#4460);
#4480=SURFACE_SIDE_STYLE('',(#4470));
#4490=SURFACE_STYLE_USAGE(.BOTH.,#4480);
#4500=PRESENTATION_STYLE_ASSIGNMENT((#4490));
#4510=STYLED_ITEM('',(#4500),#4200);
#4520=OVER_RIDING_STYLED_ITEM('',(#490),#420,#4510);
#4530=OVER_RIDING_STYLED_ITEM('',(#980),#910,#4510);
#4540=OVER_RIDING_STYLED_ITEM('',(#1410),#1340,#4510);
#4550=OVER_RIDING_STYLED_ITEM('',(#1640),#1570,#4510);
#4560=OVER_RIDING_STYLED_ITEM('',(#2030),#1960,#4510);
#4570=OVER_RIDING_STYLED_ITEM('',(#2320),#2250,#4510);
#4580=OVER_RIDING_STYLED_ITEM('',(#2720),#2650,#4510);
#4590=OVER_RIDING_STYLED_ITEM('',(#3020),#2950,#4510);
#4600=OVER_RIDING_STYLED_ITEM('',(#3220),#3150,#4510);
#4610=OVER_RIDING_STYLED_ITEM('',(#3410),#3340,#4510);
#4620=OVER_RIDING_STYLED_ITEM('',(#3600),#3530,#4510);
#4630=OVER_RIDING_STYLED_ITEM('',(#3800),#3730,#4510);
#4640=OVER_RIDING_STYLED_ITEM('',(#3990),#3920,#4510);
#4650=OVER_RIDING_STYLED_ITEM('',(#4180),#4110,#4510);
#4660=DRAUGHTING_MODEL('',(#4510,#4520,#4530,#4540,#4550,#4560,#4570,
#4580,#4590,#4600,#4610,#4620,#4630,#4640,#4650),#4400);
ENDSEC;
END-ISO-10303-21;
