ISO-10303-21;
HEADER;
FILE_DESCRIPTION(('Creo Elements/Direct Modeling STEP Export'),'2;1');
FILE_NAME(
'C:/Temp/JobServerData/JobServer Files/ad922f83-a297-4bf0-a51e-d9d58ee38
62e/work/output/model.stp','2024-03-14T14:08:44',(''),(''),
'Creo Elements/Direct Modeling STEP processor for AP214 (Solid Model)',
'Creo Elements/Direct Modeling 20.1D  10-Oct-2020 (C) Parametric Technol
ogy GmbH','');
FILE_SCHEMA(('AUTOMOTIVE_DESIGN { 1 0 10303 214 1 1 1 1 }'));
ENDSEC;
DATA;
#10=CARTESIAN_POINT('',(0.,3.5,0.));
#20=DIRECTION('',(0.,1.,0.));
#30=DIRECTION('',(1.,0.,0.));
#40=AXIS2_PLACEMENT_3D('',#10,#20,#30);
#50=CYLINDRICAL_SURFACE('',#40,0.900000000000001);
#60=CARTESIAN_POINT('',(0.900000000000001,3.5,0.));
#70=DIRECTION('',(0.,1.,0.));
#80=VECTOR('',#70,1.);
#90=LINE('',#60,#80);
#100=CARTESIAN_POINT('',(0.900000000000001,-1.,0.));
#110=VERTEX_POINT('',#100);
#120=CARTESIAN_POINT('',(0.900000000000001,8.,0.));
#130=VERTEX_POINT('',#120);
#140=EDGE_CURVE('',#110,#130,#90,.T.);
#150=ORIENTED_EDGE('',*,*,#140,.F.);
#160=CARTESIAN_POINT('',(0.,8.,0.));
#170=DIRECTION('',(0.,1.,0.));
#180=DIRECTION('',(1.,0.,0.));
#190=AXIS2_PLACEMENT_3D('',#160,#170,#180);
#200=CIRCLE('',#190,0.9);
#210=CARTESIAN_POINT('',(-0.900000000000001,8.,-1.10218211923262E-16));
#220=VERTEX_POINT('',#210);
#230=EDGE_CURVE('',#220,#130,#200,.T.);
#240=ORIENTED_EDGE('',*,*,#230,.T.);
#250=CARTESIAN_POINT('',(-0.900000000000001,3.5,-1.10218211923262E-16));
#260=DIRECTION('',(0.,1.,0.));
#270=VECTOR('',#260,1.);
#280=LINE('',#250,#270);
#290=CARTESIAN_POINT('',(-0.900000000000001,-1.,-1.10218211923262E-16));
#300=VERTEX_POINT('',#290);
#310=EDGE_CURVE('',#300,#220,#280,.T.);
#320=ORIENTED_EDGE('',*,*,#310,.T.);
#330=CARTESIAN_POINT('',(0.,-1.,0.));
#340=DIRECTION('',(0.,1.,0.));
#350=DIRECTION('',(1.,0.,0.));
#360=AXIS2_PLACEMENT_3D('',#330,#340,#350);
#370=CIRCLE('',#360,0.900000000000001);
#380=EDGE_CURVE('',#300,#110,#370,.T.);
#390=ORIENTED_EDGE('',*,*,#380,.F.);
#400=EDGE_LOOP('',(#390,#320,#240,#150));
#410=FACE_OUTER_BOUND('',#400,.T.);
#420=ADVANCED_FACE('',(#410),#50,.F.);
#430=CARTESIAN_POINT('',(0.,-1.90499654695475,0.));
#440=DIRECTION('',(0.,-1.,0.));
#450=DIRECTION('',(-1.,0.,0.));
#460=AXIS2_PLACEMENT_3D('',#430,#440,#450);
#470=CONICAL_SURFACE('',#460,1.42250000000001,0.523598775598299);
#480=CARTESIAN_POINT('',(-1.42250000000001,-1.90499654695475,0.));
#490=DIRECTION('',(-0.5,-0.866025403784439,0.));
#500=VECTOR('',#490,2.84500000000001);
#510=LINE('',#480,#500);
#520=CARTESIAN_POINT('',(-1.42250000000001,-1.90499654695475,0.));
#530=VERTEX_POINT('',#520);
#540=EDGE_CURVE('',#300,#530,#510,.T.);
#550=ORIENTED_EDGE('',*,*,#540,.T.);
#560=EDGE_CURVE('',#110,#300,#370,.T.);
#570=ORIENTED_EDGE('',*,*,#560,.T.);
#580=CARTESIAN_POINT('',(1.42250000000001,-1.90499654695475,
-1.74206007178712E-16));
#590=DIRECTION('',(0.5,-0.866025403784439,-6.12323399573677E-17));
#600=VECTOR('',#590,2.84500000000001);
#610=LINE('',#580,#600);
#620=CARTESIAN_POINT('',(1.42250000000001,-1.90499654695475,
-1.74206007178712E-16));
#630=VERTEX_POINT('',#620);
#640=EDGE_CURVE('',#110,#630,#610,.T.);
#650=ORIENTED_EDGE('',*,*,#640,.F.);
#660=CARTESIAN_POINT('',(0.,-1.90499654695475,0.));
#670=DIRECTION('',(0.,-1.,0.));
#680=DIRECTION('',(-1.,0.,0.));
#690=AXIS2_PLACEMENT_3D('',#660,#670,#680);
#700=CIRCLE('',#690,1.42250000000001);
#710=EDGE_CURVE('',#530,#630,#700,.T.);
#720=ORIENTED_EDGE('',*,*,#710,.T.);
#730=EDGE_LOOP('',(#720,#650,#570,#550));
#740=FACE_OUTER_BOUND('',#730,.T.);
#750=ADVANCED_FACE('',(#740),#470,.F.);
#760=CARTESIAN_POINT('',(0.975,8.,0.));
#770=DIRECTION('',(-0.,-1.,-0.));
#780=DIRECTION('',(-1.,0.,0.));
#790=AXIS2_PLACEMENT_3D('',#760,#770,#780);
#800=PLANE('',#790);
#810=EDGE_CURVE('',#130,#220,#200,.T.);
#820=ORIENTED_EDGE('',*,*,#810,.F.);
#830=ORIENTED_EDGE('',*,*,#230,.F.);
#840=EDGE_LOOP('',(#830,#820));
#850=FACE_BOUND('',#840,.T.);
#860=CARTESIAN_POINT('',(0.,8.,0.));
#870=DIRECTION('',(0.,1.,0.));
#880=DIRECTION('',(1.,0.,0.));
#890=AXIS2_PLACEMENT_3D('',#860,#870,#880);
#900=CIRCLE('',#890,1.05);
#910=CARTESIAN_POINT('',(1.05,8.,-1.28587913910472E-16));
#920=VERTEX_POINT('',#910);
#930=CARTESIAN_POINT('',(-1.05,8.,0.));
#940=VERTEX_POINT('',#930);
#950=EDGE_CURVE('',#920,#940,#900,.T.);
#960=ORIENTED_EDGE('',*,*,#950,.T.);
#970=EDGE_CURVE('',#940,#920,#900,.T.);
#980=ORIENTED_EDGE('',*,*,#970,.T.);
#990=EDGE_LOOP('',(#980,#960));
#1000=FACE_OUTER_BOUND('',#990,.T.);
#1010=ADVANCED_FACE('',(#850,#1000),#800,.F.);
#1020=CARTESIAN_POINT('',(0.,3.5,0.));
#1030=DIRECTION('',(0.,-1.,0.));
#1040=DIRECTION('',(-1.,0.,0.));
#1050=AXIS2_PLACEMENT_3D('',#1020,#1030,#1040);
#1060=CYLINDRICAL_SURFACE('',#1050,1.05);
#1070=CARTESIAN_POINT('',(1.05,3.5,-1.28587913910472E-16));
#1080=DIRECTION('',(0.,-1.,0.));
#1090=VECTOR('',#1080,1.);
#1100=LINE('',#1070,#1090);
#1110=CARTESIAN_POINT('',(1.05,0.,-1.28587913910472E-16));
#1120=VERTEX_POINT('',#1110);
#1130=EDGE_CURVE('',#920,#1120,#1100,.T.);
#1140=ORIENTED_EDGE('',*,*,#1130,.F.);
#1150=CARTESIAN_POINT('',(0.,-4.44089209850063E-16,0.));
#1160=DIRECTION('',(0.,-1.,0.));
#1170=DIRECTION('',(-1.,0.,0.));
#1180=AXIS2_PLACEMENT_3D('',#1150,#1160,#1170);
#1190=CIRCLE('',#1180,1.05);
#1200=CARTESIAN_POINT('',(-1.05,-4.44089209850063E-16,0.));
#1210=VERTEX_POINT('',#1200);
#1220=EDGE_CURVE('',#1120,#1210,#1190,.T.);
#1230=ORIENTED_EDGE('',*,*,#1220,.F.);
#1240=CARTESIAN_POINT('',(-1.05,3.5,0.));
#1250=DIRECTION('',(0.,-1.,0.));
#1260=VECTOR('',#1250,1.);
#1270=LINE('',#1240,#1260);
#1280=EDGE_CURVE('',#940,#1210,#1270,.T.);
#1290=ORIENTED_EDGE('',*,*,#1280,.T.);
#1300=ORIENTED_EDGE('',*,*,#970,.F.);
#1310=EDGE_LOOP('',(#1300,#1290,#1230,#1140));
#1320=FACE_OUTER_BOUND('',#1310,.T.);
#1330=ADVANCED_FACE('',(#1320),#1060,.T.);
#1340=CARTESIAN_POINT('',(0.,-6.,0.));
#1350=DIRECTION('',(0.,-1.,0.));
#1360=DIRECTION('',(-1.,0.,0.));
#1370=AXIS2_PLACEMENT_3D('',#1340,#1350,#1360);
#1380=CONICAL_SURFACE('',#1370,1.85,0.104018728290217);
#1390=CARTESIAN_POINT('',(1.85,-6.,-2.2655965784226E-16));
#1400=DIRECTION('',(0.103831251108975,-0.994594928246241,
-1.27156609322072E-17));
#1410=VECTOR('',#1400,17.8173717473398);
#1420=LINE('',#1390,#1410);
#1430=CARTESIAN_POINT('',(1.85,-6.,-2.2655965784226E-16));
#1440=VERTEX_POINT('',#1430);
#1450=EDGE_CURVE('',#630,#1440,#1420,.T.);
#1460=ORIENTED_EDGE('',*,*,#1450,.T.);
#1470=EDGE_CURVE('',#630,#530,#700,.T.);
#1480=ORIENTED_EDGE('',*,*,#1470,.F.);
#1490=CARTESIAN_POINT('',(-1.85,-6.,0.));
#1500=DIRECTION('',(-0.103831251108975,-0.994594928246241,0.));
#1510=VECTOR('',#1500,17.8173717473398);
#1520=LINE('',#1490,#1510);
#1530=CARTESIAN_POINT('',(-1.85,-6.,0.));
#1540=VERTEX_POINT('',#1530);
#1550=EDGE_CURVE('',#530,#1540,#1520,.T.);
#1560=ORIENTED_EDGE('',*,*,#1550,.F.);
#1570=CARTESIAN_POINT('',(0.,-6.,0.));
#1580=DIRECTION('',(0.,1.,0.));
#1590=DIRECTION('',(1.,0.,0.));
#1600=AXIS2_PLACEMENT_3D('',#1570,#1580,#1590);
#1610=CIRCLE('',#1600,1.85);
#1620=EDGE_CURVE('',#1540,#1440,#1610,.T.);
#1630=ORIENTED_EDGE('',*,*,#1620,.F.);
#1640=EDGE_LOOP('',(#1630,#1560,#1480,#1460));
#1650=FACE_OUTER_BOUND('',#1640,.T.);
#1660=ADVANCED_FACE('',(#1650),#1380,.F.);
#1670=COLOUR_RGB('',0.0823529437184334,0.0862745121121407,
0.0980392247438431);
#1680=FILL_AREA_STYLE_COLOUR('',#1670);
#1690=FILL_AREA_STYLE('',(#1680));
#1700=SURFACE_STYLE_FILL_AREA(#1690);
#1710=SURFACE_SIDE_STYLE('',(#1700));
#1720=SURFACE_STYLE_USAGE(.BOTH.,#1710);
#1730=PRESENTATION_STYLE_ASSIGNMENT((#1720));
#1740=CARTESIAN_POINT('',(2.,-6.,0.));
#1750=DIRECTION('',(-0.,1.,0.));
#1760=DIRECTION('',(1.,0.,0.));
#1770=AXIS2_PLACEMENT_3D('',#1740,#1750,#1760);
#1780=PLANE('',#1770);
#1790=CARTESIAN_POINT('',(0.,-6.,0.));
#1800=DIRECTION('',(0.,1.,0.));
#1810=DIRECTION('',(1.,0.,0.));
#1820=AXIS2_PLACEMENT_3D('',#1790,#1800,#1810);
#1830=CIRCLE('',#1820,2.15);
#1840=CARTESIAN_POINT('',(2.15,-6.,0.));
#1850=VERTEX_POINT('',#1840);
#1860=CARTESIAN_POINT('',(-2.15,-6.,-2.6329906181668E-16));
#1870=VERTEX_POINT('',#1860);
#1880=EDGE_CURVE('',#1850,#1870,#1830,.T.);
#1890=ORIENTED_EDGE('',*,*,#1880,.F.);
#1900=EDGE_CURVE('',#1870,#1850,#1830,.T.);
#1910=ORIENTED_EDGE('',*,*,#1900,.F.);
#1920=EDGE_LOOP('',(#1910,#1890));
#1930=FACE_OUTER_BOUND('',#1920,.T.);
#1940=EDGE_CURVE('',#1440,#1540,#1610,.T.);
#1950=ORIENTED_EDGE('',*,*,#1940,.T.);
#1960=ORIENTED_EDGE('',*,*,#1620,.T.);
#1970=EDGE_LOOP('',(#1960,#1950));
#1980=FACE_BOUND('',#1970,.T.);
#1990=ADVANCED_FACE('',(#1930,#1980),#1780,.F.);
#2000=COLOUR_RGB('',0.0823529437184334,0.0862745121121407,
0.0980392247438431);
#2010=FILL_AREA_STYLE_COLOUR('',#2000);
#2020=FILL_AREA_STYLE('',(#2010));
#2030=SURFACE_STYLE_FILL_AREA(#2020);
#2040=SURFACE_SIDE_STYLE('',(#2030));
#2050=SURFACE_STYLE_USAGE(.BOTH.,#2040);
#2060=PRESENTATION_STYLE_ASSIGNMENT((#2050));
#2070=CARTESIAN_POINT('',(0.,-4.09,0.));
#2080=DIRECTION('',(0.,1.,0.));
#2090=DIRECTION('',(1.,0.,0.));
#2100=AXIS2_PLACEMENT_3D('',#2070,#2080,#2090);
#2110=CYLINDRICAL_SURFACE('',#2100,2.15);
#2120=CARTESIAN_POINT('',(2.15,-4.09,0.));
#2130=DIRECTION('',(0.,1.,0.));
#2140=VECTOR('',#2130,1.);
#2150=LINE('',#2120,#2140);
#2160=CARTESIAN_POINT('',(2.15,-2.18,0.));
#2170=VERTEX_POINT('',#2160);
#2180=EDGE_CURVE('',#1850,#2170,#2150,.T.);
#2190=ORIENTED_EDGE('',*,*,#2180,.T.);
#2200=ORIENTED_EDGE('',*,*,#1900,.T.);
#2210=CARTESIAN_POINT('',(-2.15,-4.09,-2.6329906181668E-16));
#2220=DIRECTION('',(0.,1.,0.));
#2230=VECTOR('',#2220,1.);
#2240=LINE('',#2210,#2230);
#2250=CARTESIAN_POINT('',(-2.15,-2.18,-2.6329906181668E-16));
#2260=VERTEX_POINT('',#2250);
#2270=EDGE_CURVE('',#1870,#2260,#2240,.T.);
#2280=ORIENTED_EDGE('',*,*,#2270,.F.);
#2290=CARTESIAN_POINT('',(0.,-2.18,0.));
#2300=DIRECTION('',(0.,1.,0.));
#2310=DIRECTION('',(1.,0.,0.));
#2320=AXIS2_PLACEMENT_3D('',#2290,#2300,#2310);
#2330=CIRCLE('',#2320,2.14999999999999);
#2340=EDGE_CURVE('',#2260,#2170,#2330,.T.);
#2350=ORIENTED_EDGE('',*,*,#2340,.F.);
#2360=EDGE_LOOP('',(#2350,#2280,#2200,#2190));
#2370=FACE_OUTER_BOUND('',#2360,.T.);
#2380=ADVANCED_FACE('',(#2370),#2110,.T.);
#2390=COLOUR_RGB('',0.0823529437184334,0.0862745121121407,
0.0980392247438431);
#2400=FILL_AREA_STYLE_COLOUR('',#2390);
#2410=FILL_AREA_STYLE('',(#2400));
#2420=SURFACE_STYLE_FILL_AREA(#2410);
#2430=SURFACE_SIDE_STYLE('',(#2420));
#2440=SURFACE_STYLE_USAGE(.BOTH.,#2430);
#2450=PRESENTATION_STYLE_ASSIGNMENT((#2440));
#2460=CARTESIAN_POINT('',(0.,-2.18,0.));
#2470=DIRECTION('',(0.,-1.,0.));
#2480=DIRECTION('',(-1.,0.,0.));
#2490=AXIS2_PLACEMENT_3D('',#2460,#2470,#2480);
#2500=CONICAL_SURFACE('',#2490,2.14999999999999,0.467310596281038);
#2510=CARTESIAN_POINT('',(-2.14999999999999,-2.18,0.));
#2520=DIRECTION('',(-0.450486863361685,-0.892783056480437,0.));
#2530=VECTOR('',#2520,4.77261419779473);
#2540=LINE('',#2510,#2530);
#2550=EDGE_CURVE('',#1210,#2260,#2540,.T.);
#2560=ORIENTED_EDGE('',*,*,#2550,.F.);
#2570=EDGE_CURVE('',#2170,#2260,#2330,.T.);
#2580=ORIENTED_EDGE('',*,*,#2570,.T.);
#2590=CARTESIAN_POINT('',(2.14999999999999,-2.18,-2.6329906181668E-16));
#2600=DIRECTION('',(0.450486863361685,-0.892783056480437,
-5.51687295273818E-17));
#2610=VECTOR('',#2600,4.77261419779473);
#2620=LINE('',#2590,#2610);
#2630=EDGE_CURVE('',#1120,#2170,#2620,.T.);
#2640=ORIENTED_EDGE('',*,*,#2630,.T.);
#2650=EDGE_CURVE('',#1210,#1120,#1190,.T.);
#2660=ORIENTED_EDGE('',*,*,#2650,.T.);
#2670=EDGE_LOOP('',(#2660,#2640,#2580,#2560));
#2680=FACE_OUTER_BOUND('',#2670,.T.);
#2690=ADVANCED_FACE('',(#2680),#2500,.T.);
#2700=COLOUR_RGB('',0.0823529437184334,0.0862745121121407,
0.0980392247438431);
#2710=FILL_AREA_STYLE_COLOUR('',#2700);
#2720=FILL_AREA_STYLE('',(#2710));
#2730=SURFACE_STYLE_FILL_AREA(#2720);
#2740=SURFACE_SIDE_STYLE('',(#2730));
#2750=SURFACE_STYLE_USAGE(.BOTH.,#2740);
#2760=PRESENTATION_STYLE_ASSIGNMENT((#2750));
#2770=CARTESIAN_POINT('',(0.,-6.,0.));
#2780=DIRECTION('',(0.,-1.,0.));
#2790=DIRECTION('',(-1.,0.,0.));
#2800=AXIS2_PLACEMENT_3D('',#2770,#2780,#2790);
#2810=CONICAL_SURFACE('',#2800,1.85,0.104018728290217);
#2820=ORIENTED_EDGE('',*,*,#1450,.F.);
#2830=ORIENTED_EDGE('',*,*,#1940,.F.);
#2840=ORIENTED_EDGE('',*,*,#1550,.T.);
#2850=ORIENTED_EDGE('',*,*,#710,.F.);
#2860=EDGE_LOOP('',(#2850,#2840,#2830,#2820));
#2870=FACE_OUTER_BOUND('',#2860,.T.);
#2880=ADVANCED_FACE('',(#2870),#2810,.F.);
#2890=COLOUR_RGB('',0.0823529437184334,0.0862745121121407,
0.0980392247438431);
#2900=FILL_AREA_STYLE_COLOUR('',#2890);
#2910=FILL_AREA_STYLE('',(#2900));
#2920=SURFACE_STYLE_FILL_AREA(#2910);
#2930=SURFACE_SIDE_STYLE('',(#2920));
#2940=SURFACE_STYLE_USAGE(.BOTH.,#2930);
#2950=PRESENTATION_STYLE_ASSIGNMENT((#2940));
#2960=CARTESIAN_POINT('',(0.,3.5,0.));
#2970=DIRECTION('',(0.,1.,0.));
#2980=DIRECTION('',(1.,0.,0.));
#2990=AXIS2_PLACEMENT_3D('',#2960,#2970,#2980);
#3000=CYLINDRICAL_SURFACE('',#2990,0.900000000000001);
#3010=ORIENTED_EDGE('',*,*,#560,.F.);
#3020=ORIENTED_EDGE('',*,*,#310,.F.);
#3030=ORIENTED_EDGE('',*,*,#810,.T.);
#3040=ORIENTED_EDGE('',*,*,#140,.T.);
#3050=EDGE_LOOP('',(#3040,#3030,#3020,#3010));
#3060=FACE_OUTER_BOUND('',#3050,.T.);
#3070=ADVANCED_FACE('',(#3060),#3000,.F.);
#3080=CARTESIAN_POINT('',(0.,-1.90499654695475,0.));
#3090=DIRECTION('',(0.,-1.,0.));
#3100=DIRECTION('',(-1.,0.,0.));
#3110=AXIS2_PLACEMENT_3D('',#3080,#3090,#3100);
#3120=CONICAL_SURFACE('',#3110,1.42250000000001,0.523598775598299);
#3130=ORIENTED_EDGE('',*,*,#540,.F.);
#3140=ORIENTED_EDGE('',*,*,#1470,.T.);
#3150=ORIENTED_EDGE('',*,*,#640,.T.);
#3160=ORIENTED_EDGE('',*,*,#380,.T.);
#3170=EDGE_LOOP('',(#3160,#3150,#3140,#3130));
#3180=FACE_OUTER_BOUND('',#3170,.T.);
#3190=ADVANCED_FACE('',(#3180),#3120,.F.);
#3200=CARTESIAN_POINT('',(0.,-2.18,0.));
#3210=DIRECTION('',(0.,-1.,0.));
#3220=DIRECTION('',(-1.,0.,0.));
#3230=AXIS2_PLACEMENT_3D('',#3200,#3210,#3220);
#3240=CONICAL_SURFACE('',#3230,2.14999999999999,0.467310596281038);
#3250=ORIENTED_EDGE('',*,*,#2550,.T.);
#3260=ORIENTED_EDGE('',*,*,#1220,.T.);
#3270=ORIENTED_EDGE('',*,*,#2630,.F.);
#3280=ORIENTED_EDGE('',*,*,#2340,.T.);
#3290=EDGE_LOOP('',(#3280,#3270,#3260,#3250));
#3300=FACE_OUTER_BOUND('',#3290,.T.);
#3310=ADVANCED_FACE('',(#3300),#3240,.T.);
#3320=COLOUR_RGB('',0.0823529437184334,0.0862745121121407,
0.0980392247438431);
#3330=FILL_AREA_STYLE_COLOUR('',#3320);
#3340=FILL_AREA_STYLE('',(#3330));
#3350=SURFACE_STYLE_FILL_AREA(#3340);
#3360=SURFACE_SIDE_STYLE('',(#3350));
#3370=SURFACE_STYLE_USAGE(.BOTH.,#3360);
#3380=PRESENTATION_STYLE_ASSIGNMENT((#3370));
#3390=CARTESIAN_POINT('',(0.,-4.09,0.));
#3400=DIRECTION('',(0.,1.,0.));
#3410=DIRECTION('',(1.,0.,0.));
#3420=AXIS2_PLACEMENT_3D('',#3390,#3400,#3410);
#3430=CYLINDRICAL_SURFACE('',#3420,2.15);
#3440=ORIENTED_EDGE('',*,*,#2570,.F.);
#3450=ORIENTED_EDGE('',*,*,#2270,.T.);
#3460=ORIENTED_EDGE('',*,*,#1880,.T.);
#3470=ORIENTED_EDGE('',*,*,#2180,.F.);
#3480=EDGE_LOOP('',(#3470,#3460,#3450,#3440));
#3490=FACE_OUTER_BOUND('',#3480,.T.);
#3500=ADVANCED_FACE('',(#3490),#3430,.T.);
#3510=COLOUR_RGB('',0.0823529437184334,0.0862745121121407,
0.0980392247438431);
#3520=FILL_AREA_STYLE_COLOUR('',#3510);
#3530=FILL_AREA_STYLE('',(#3520));
#3540=SURFACE_STYLE_FILL_AREA(#3530);
#3550=SURFACE_SIDE_STYLE('',(#3540));
#3560=SURFACE_STYLE_USAGE(.BOTH.,#3550);
#3570=PRESENTATION_STYLE_ASSIGNMENT((#3560));
#3580=CARTESIAN_POINT('',(0.,3.5,0.));
#3590=DIRECTION('',(0.,-1.,0.));
#3600=DIRECTION('',(-1.,0.,0.));
#3610=AXIS2_PLACEMENT_3D('',#3580,#3590,#3600);
#3620=CYLINDRICAL_SURFACE('',#3610,1.05);
#3630=ORIENTED_EDGE('',*,*,#1130,.T.);
#3640=ORIENTED_EDGE('',*,*,#950,.F.);
#3650=ORIENTED_EDGE('',*,*,#1280,.F.);
#3660=ORIENTED_EDGE('',*,*,#2650,.F.);
#3670=EDGE_LOOP('',(#3660,#3650,#3640,#3630));
#3680=FACE_OUTER_BOUND('',#3670,.T.);
#3690=ADVANCED_FACE('',(#3680),#3620,.T.);
#3700=CLOSED_SHELL('',(#420,#750,#1010,#1330,#1660,#1990,#2380,#2690,
#2880,#3070,#3190,#3310,#3500,#3690));
#3710=MANIFOLD_SOLID_BREP('',#3700);
#3720=CARTESIAN_POINT('',(0.,0.,0.));
#3730=DIRECTION('',(0.,0.,1.));
#3740=DIRECTION('',(1.,0.,0.));
#3750=AXIS2_PLACEMENT_3D('',#3720,#3730,#3740);
#3760=APPLICATION_CONTEXT(' ');
#3770=APPLICATION_PROTOCOL_DEFINITION(' ','automotive_design',1998,#3760
);
#3780=PRODUCT_CONTEXT('',#3760,'mechanical');
#3790=PRODUCT_DEFINITION_CONTEXT('part definition',#3760,'design');
#3800=PRODUCT('AI 1.5 - 8 BK-GB-1000','AI 1.5 - 8 BK-GB-1000','',(#3780)
);
#3810=PRODUCT_RELATED_PRODUCT_CATEGORY('part',' ',(#3800));
#3820=PRODUCT_DEFINITION_FORMATION_WITH_SPECIFIED_SOURCE('','',#3800,
.BOUGHT.);
#3830=PRODUCT_DEFINITION('',' ',#3820,#3790);
#3840=PRODUCT_DEFINITION_SHAPE('','',#3830);
#3850=DIMENSIONAL_EXPONENTS(1.,0.,0.,0.,0.,0.,0.);
#3860=DIMENSIONAL_EXPONENTS(0.,0.,0.,0.,0.,0.,0.);
#3870=DIMENSIONAL_EXPONENTS(0.,0.,0.,0.,0.,0.,0.);
#3880=(LENGTH_UNIT() NAMED_UNIT(*) SI_UNIT(.MILLI.,.METRE.));
#3890=(NAMED_UNIT(*) PLANE_ANGLE_UNIT() SI_UNIT($,.RADIAN.));
#3900=(NAMED_UNIT(*) SI_UNIT($,.STERADIAN.) SOLID_ANGLE_UNIT());
#3910=(GEOMETRIC_REPRESENTATION_CONTEXT(3) 
GLOBAL_UNCERTAINTY_ASSIGNED_CONTEXT((#3920)) 
GLOBAL_UNIT_ASSIGNED_CONTEXT((#3880,#3890,#3900)) REPRESENTATION_CONTEXT
('',''));
#3920=UNCERTAINTY_MEASURE_WITH_UNIT(LENGTH_MEASURE(1.E-6),#3880,
'distance_accuracy_value','maximum gap value');
#3930=ADVANCED_BREP_SHAPE_REPRESENTATION('',(#3750,#3710),#3910);
#3940=SHAPE_DEFINITION_REPRESENTATION(#3840,#3930);
#3950=COLOUR_RGB('',0.600000023841858,0.600000023841858,
0.600000023841858);
#3960=FILL_AREA_STYLE_COLOUR('',#3950);
#3970=FILL_AREA_STYLE('',(#3960));
#3980=SURFACE_STYLE_FILL_AREA(#3970);
#3990=SURFACE_SIDE_STYLE('',(#3980));
#4000=SURFACE_STYLE_USAGE(.BOTH.,#3990);
#4010=PRESENTATION_STYLE_ASSIGNMENT((#4000));
#4020=STYLED_ITEM('',(#4010),#3710);
#4030=OVER_RIDING_STYLED_ITEM('',(#1730),#1660,#4020);
#4040=OVER_RIDING_STYLED_ITEM('',(#2060),#1990,#4020);
#4050=OVER_RIDING_STYLED_ITEM('',(#2450),#2380,#4020);
#4060=OVER_RIDING_STYLED_ITEM('',(#2760),#2690,#4020);
#4070=OVER_RIDING_STYLED_ITEM('',(#2950),#2880,#4020);
#4080=OVER_RIDING_STYLED_ITEM('',(#3380),#3310,#4020);
#4090=OVER_RIDING_STYLED_ITEM('',(#3570),#3500,#4020);
#4100=DRAUGHTING_MODEL('',(#4020,#4030,#4040,#4050,#4060,#4070,#4080,
#4090),#3910);
ENDSEC;
END-ISO-10303-21;
